Powerman 5000 - Free Chords & Tabs

 

Free Chords & Tabs

Powerman 5000 Chords & Tabs

Version: 4 Type: Tab 0 ratings
1 star 2 stars 3 stars 4 stars 5 stars
comments

Free Tab

--------------------------------------------------------------------------------
                     POWERMAN 5000 -------- FREE
--------------------------------------------------------------------------------


Tabbed by: ron sadan
Email: ironicsushi@aol.com

Drop D tuning (DADGBE)
[ Tab from: http://www.guitartabs.cc/tabs/p/powerman_5000/free_tab_ver_4.html ]
Intro, outro and verse
e|---------------------------------------------------------------------------|
B|---------------------------------------------------------------------------|
G|---------------------------------------------------------------------------|
D|--8-8-8-8---6-6-6-6---4-4-4-4---1-1-1-1------------------------------------|
A|--8-8-8-8---6-6-6-6---4-4-4-4---1-1-1-1------------------------------------|
D|--8-8-8-8---6-6-6-6---4-4-4-4---1-1-1-1------------------------------------|

Bridge

e|---------------------------------------------------------------------------|
B|---------------------------------------------------------------------------|
G|---------------------------------------------------------------------------|
D|---------------------------------------------------------------------------|
A|---8----8-11-8---8----6----------------------------------------------------|
D|-----11------------11---8--------------------------------------------------|

thats about it... comments, critisism, suggestions, and all that jazz,
email me at ironicsushi@aol.com

keep the chill,
ron s
Comments