Powerman 5000 - Free Chords & Tabs

 

Free Chords & Tabs

Powerman 5000 Chords & Tabs

Version: 2 Type: Tab 0 ratings
1 star 2 stars 3 stars 4 stars 5 stars
comments

Free Tab

   
There were no Tabs for this great song I thought I would write it

Standard Tuning

Intro"
E--------------------------------------
B--------------------------------------
G--------------------------------------
D-8-8-8-8---6-6-6-6---4-4-4-4---2-2-2-2
A-8-8-8-8---6-6-6-6---4-4-4-4---2-2-2-2
E-6-6-6-6---4-4-4-4---2-2-2-2---0-0-0-0    <----2X

Lets Go!
[ Tab from: http://www.guitartabs.cc/tabs/p/powerman_5000/free_tab_ver_2.html ]
E----------------------------------------------------------------
B----------------------------------------------------------------
G----------------------------------------------------------------
D-8-8-8-8-8-8-8-8-6-6-6-6-6-6-6-6-4-4-4-4-4-4-4-4-2-2-2-2-2-2-2-2
A-8-8-8-8-8-8-8-8-6-6-6-6-6-6-6-6-4-4-4-4-4-4-4-4-2-2-2-2-2-2-2-2
E-6-6-6-6-6-6-6-6-4-4-4-4-4-4-4-4-2-2-2-2-2-2-2-2-0-0-0-0-0-0-0-0   <----2X


Thats about all i got right now Email Me at "Cactus_Ninja@yahoo.com" for the rest of the song

Peace Out,
Jason Scherer
Comments