Powerman 5000 - Free Chords & Tabs

 

Free Chords & Tabs

Powerman 5000 Chords & Tabs

Version: 1 Type: Bass Tab 0 ratings
1 star 2 stars 3 stars 4 stars 5 stars
comments

Free Bass Tab

   
Artist: Powerman 5000
Song: Free
Album: Transform
Tabbed by: NoFace
E Mail: linkin_crawling@hotmail.com (add me to msn messenger if you want :D )

Intro:00:00 ( just the verse theme)


G/----------------------------------------
D/----------------------------------------
A/----------------------------------------
E/6-6-6-6--1--4-4-4-4---2-2-2-2---0-0-0-0-  X2


Lets GO! 

G/---------------------------------------------------------------
D/---------------------------------------------------------------
A/---------------------------------------------------------------
E/4-4-4-4-4-4-4-4-6-6-6-6-6-6-6-6-2-2-2-2-2-2-2-2-0-0-0-0-0-0-0-0 X2

Verse:00:29 Evrebody need...

G/-------------------------------------
D/-------------------------------------
A/-------------------------------------
E/6-6-6-6---4-4-4-4---2-2-2-2---0-0-0-0 X2

Chorus: 00:43 Living is so free is a tragedy..

G/---------------------------------------
D/---------------------------------------
A/---------------------------------------
E/4-4-4-4-6-6-6-6-2-2-2-2-1-2-1-2-1-2-1-2 X3

G/---------------------------------------
D/---------------------------------------
A/---------------------------------------
E/6-6-6-6-4-4-4-4-2-2-2-2-1-2-1-2-1-2-1-2 X1

ALL RIGHT!

G/---------------------------------------------------------------
D/---------------------------------------------------------------
A/---------------------------------------------------------------
E/4-4-4-4-4-4-4-4-6-6-6-6-6-6-6-6-2-2-2-2-2-2-2-2-0-0-0-0-0-0-0-0 X2


Verse: 01:12 And all the time... 
[ Tab from: http://www.guitartabs.cc/tabs/p/powerman_5000/free_btab.html ]
G/-------------------------------------
D/-------------------------------------
A/-------------------------------------
E/6-6-6-6---4-4-4-4---2-2-2-2---0-0-0-0 X2

Chrous 01:27 Living is so free is a tragedy               

G/----------------------------------------
D/----------------------------------------
A/----------------------------------------
E/4-4-4-4-6-6-6-6-2-2-2-2-1-2-1-2-1-2-1-2- X3                      X2

G/----------------------------------------
D/----------------------------------------
A/----------------------------------------
E/6-6-6-6-4-4-4-4-2-2-2-2-1-2-1-2-1-2-1-2- X1            

Bridge 02:00 Wishin, and helpin and thinkin is you

จจ(This do it smooth and up the volume at long the time past...)จจ


G/---------------------------------------------------------------
D/---------------------------------------------------------------
A/---------------------------------------------------------------
E/6-6-6-6-6-6-6-6-4-4-4-4-4-4-4-4-2-2-2-2-2-2-2-2-0-0-0-0-0-0-0-0 X6

Chrous: 02:43


G/----------------------------------------
D/----------------------------------------
A/----------------------------------------
E/4-4-4-4-6-6-6-6-2-2-2-2-1-2-1-2-1-2-1-2- X3 

G/----------------------------------------                 X2
D/----------------------------------------
A/----------------------------------------
E/6-6-6-6-4-4-4-4-2-2-2-2-1-2-1-2-1-2-1-2- X1 

Lets GO!

G/---------------------------------------------------------------
D/---------------------------------------------------------------
A/---------------------------------------------------------------
E/4-4-4-4-4-4-4-4-6-6-6-6-6-6-6-6-2-2-2-2-2-2-2-2-0-0-0-0-0-0-0-0 X2


G/---------------------------------------
D/---------------------------------------
A/---------------------------------------
E/6-6-6-6--1--4-4-4-4---2-2-2-2---0-0-0-0 X2
Comments