Powerman 5000 - Bombshell Chords & Tabs

 

Bombshell Chords & Tabs

Powerman 5000 Chords & Tabs

Version: 1 Type: Bass Tab 0 ratings
1 star 2 stars 3 stars 4 stars 5 stars
comments

Bombshell Bass Tab

   
Artist: Powerman 5000
Song: Bombshell
Album: Anyone For Doomsday?
Inst type: Bass
Tabbed by: NoFace
Msn messenger/e mail: linkin_crawling@hotmail.com



Intro/Chorus: Get Up Get Up Drop The Bombshell


G/-------------------------
D/-------------------------
A/-------------------------
E/-2-2--2-2--2-2--2--2-3-4-

G/-------------------------
D/-------------------------
A/-------------------------
E/-2-2--2-2--2-2--4--3-2-2-

Verse 
1St Part of the verse:

G/------------------
D/------------------
A/------------------
E/-2-2-2-2---2-2-2-2

2nd part of the Verse:

G/-----------------------
D/-----------------------
A/-----------------------
E/-2-2-2-2--4--2-2-2-2--4

3rd part: (just before chorus)

G/--------------
D/--------------
A/--------------
E/-5--4--3--2-2-

Chorus: Get Up Get UP Drop The Bombshell

G/-------------------------
D/-------------------------
A/-------------------------
E/-2-2--2-2--2-2--2--2-3-4-

G/-------------------------
D/-------------------------
A/-------------------------
E/-2-2--2-2--2-2--2--4-3-2-

Verse 2: 

G/------------------
D/------------------
A/------------------
E/-2-2-2-2---2-2-2-2

Chorus:Get Up Get Up Drop The Bombshell
[ Tab from: http://www.guitartabs.cc/tabs/p/powerman_5000/bombshell_btab.html ]
G/-------------------------
D/-------------------------
A/-------------------------
E/-2-2--2-2--2-2--2--2-3-4-

G/-------------------------
D/-------------------------
A/-------------------------
E/-2-2--2-2--2-2--2--4-3-2-

Bridge And The End:

G/---------------------
D/---------------------
A/---------------------
E/-2-2--2-2----2-2--2-2 X2

G/------------------------     --
D/------------------------       --
A/------------------------          --
E/-2-2--2-2--2-2--2--2-3-4             --
                                         -- X2
G/------------------------             --
D/------------------------          --
A/------------------------       --
E/-2-2--2-2--2-2--2--4-3-2    --

G/----------------------------------------
D/----------------------------------------
A/---------------------------------------- X3
E/-1-1-1-1-2-2-2-2-3-3-3-3-3-3-3-3-4-4-4-4

G/---------------------
D/---------------------
A/--------------------- X2
E/3--4--2-2-2-2-2-2-2-2
       /DO IT HEAVY    \

G/----------------------------------------
D/----------------------------------------
A/---------------------------------------- X3
E/-1-1-1-1-2-2-2-2-3-3-3-3-3-3-3-3-4-4-4-4  

G/---------------------
D/---------------------
A/--------------------- X8
E/3--4--2-2-2-2-2-2-2-2
       /DO IT HEAVY    \

END
Comments