Powerman 5000 - Automatic Chords & Tabs

 

Automatic Chords & Tabs

Powerman 5000 Chords & Tabs

Version: 1 Type: Tab 1 rating
1 star 2 stars 3 stars 4 stars 5 stars
comments

Automatic Tab

   
Automatic
P O W E R M A N   5 0 0 0
Tabbed By Aaron Bridgeman (rokken@sicness.net)

http://bogans.arecool.net

TUNING: Drop D down 1/2 step (Db Ab Db Gb Bb eb)

KEY:
/ = slide up
~ = sustain
[ Tab from: http://www.guitartabs.cc/tabs/p/powerman_5000/automatic_tab.html ]
INTRO RIFF:
eb|--------------------------------------------------------------------|
Bb|--------------------------------------------------------------------|
Gb|--------------------------------------------------------------------|
Db|--------------------------------------------------------------------|
Ab|----------11------------------------------11-------------------10-9-|
Db|-12-12-12----12---12-10--10-12---12-12-12----12---12-10--10-12------|

INTRO LEAD:
eb|--------------------------------------|
Bb|--------------------------------------|
Gb|----14-13--10/12-12------14-13~-12~---|
Db|-12-------------------12--------------|
Ab|--------------------------------------|
Db|--------------------------------------|

VERSE:
eb|-----|
Bb|-----|
Gb|-----|
Db|-----|
Ab|-0-0-|
Db|-0-0-|
repeat palm muted

Killer riff!
Comments