Power Rangers - Power Rangers Theme Chords & Tabs

 

Power Rangers Theme Chords & Tabs

Power Rangers Chords & Tabs

Version: 1 Type: Tab 2 ratings
1 star 2 stars 3 stars 4 stars 5 stars
comments

Power Rangers Theme Tab

   
Power Rangers
Tab
Parts in song:

Guitar 1
Guitar 2
Guitar 3 (Vocals)
Bass guitar
Piano
Drums

Required Skills:  Power Chords (Duh)  And Tapping

Whole note:       4 beats
Half note:          2 beats
Quatre note:      1 beat
Eighth note:       ½ a beat
Sixteenth note:  ¼ of abeat
For Timing, below each note it will say: 
W: whole
H: half
T: half + quarter  (Three beats)
Q: quarter
E: eighth
S: sixteenth
X: a bit longer than a quarter note (sixteenth +   
     quarter)

(For some parts of the song you may want to play the notes fast…..ex:  Whole note: 16 strums, Half: 8 strums (standard rock riffs) or quarter note: 4 strums.)

If u don’t know anything bout notes forget the above stuff.

t: tap
p: pull-off
h: hammer on


Guitar 1:  Intro (4x)

---------------------------------------------------------------------------
---------------------------------------------------------------------------
------------9-------------9-----------9------------9------9--^--10---------
------------9-------------9-----------9------------9------9--^--10---------
------------7-------------7-----------7------------7------7--^--8----------
---0---0--------0----0-------0---0-------0---0-------0---------------------
     
   E   E    E   E    E   E   E   E    E  E   E     E E    Q     Q


Guitar 2:   (nothing)

---------------------------------------------------------------------------
---------------------------------------------------------------------------
---------------------------------------------------------------------------
---------------------------------------------------------------------------
---------------------------------------------------------------------------
---------------------------------------------------------------------------

Guitar 1:  

---------------------------------------------------------------------------
---------------------------------------------------------------------------
---------------------------------------------------------------------------
--5-----7-----4------9-----7-----5---5----4--------------------------------
--3-----5-----2------7-----5-----3---3----3--------------------------------
---------------------------------------------------------------------------
   
  W     W     W      H     H    W+H  H    W+H




Guitar 2:  Solo

Tapping Sequence 1

---------------------------------------------------------------------------
---------------------------------------------------------------------------
--t-12---p-9---p-5—h9-(4x)--t-14---p11---p7---h11---(4x)-------------------
---------------------------------------------------------------------------
---------------------------------------------------------------------------
---------------------------------------------------------------------------


---------------------------------------------------------------------------
-----t-12---p7---p4---h7----(4x)---t-12----p8---p5---h8------(4x)----------
---------------------------------------------------------------------------
---------------------------------------------------------------------------
---------------------------------------------------------------------------
---------------------------------------------------------------------------



---------------------------------------------------------------------------
--t-13---p8----p5---h8-------(8x)--------12-Let Ring-----------------------
---------------------------------------------------------------------------
---------------------------------------------------------------------------
---------------------------------------------------------------------------
---------------------------------------------------------------------------


Guitar 1:  (Off Beat) 

---------------------------------------------------------------------------
---------------------------------------------------------------------------
---------------------------------------------------------------------------
---9----9----9-----9-----9-----5----5-----7-----7--7-----------------------
---7----7----7-----7-----7-----3----3-----5-----5--5-----------------------
---------------------------------------------------------------------------

    Q     X      T       X       Q      Q      Q       X      X   Q

---------------------------------------------------------------------------
---------------------------------------------------------------------------
------------------------------------------5--5--5--5--5--5-5--5--5--5------
--9--9---9---9--9---5--5---7--7--7--------3--3--3--3--3--3-3--3--3--3------
--7--7---7---7--7---3--3---5--5--5-----------------------------------------
---------------------------------------------------------------------------

  Q  X   T   X  Q   Q  Q   X  X  Q        Q  X  Q  Q  X  Q  Q  Q  Q  Q   



Guitar 2:   (2x)
[ Tab from: http://www.guitartabs.cc/tabs/p/power_rangers/power_rangers_theme_tab.html ]
----------19--17---------------------------19--17--------------------------
------17-----------19—20------------17-----------------20--19--------------
---------------------------------------------------------------------------
---------------------------------------------------------------------------
---------------------------------------------------------------------------
---------------------------------------------------------------------------




Guitar 1:

---------------------------------------------------------------------------
---------------------------------------------------------------------------
---------------------------------------------------------------------------
-------------9-----------9-------------9-----------9------------9----------
----7---7----7---7---7--7----7--7------7---7---7---7---7---7----7----5-----
---------------------------------------------------------------------------

     E   E      E     E    E   E     E    E      E  E    E    E     E     E    E      E


---------------------------------------------------------------------------
---------------------------------------------------------------------------
---------------------------------------------------------------------------
-------------9-----------9-------------9-----------9------------9----------
---7---7----7---7---7----7----7---7----7---7---7---7---7---7----7----7-----
---------------------------------------------------------------------------

    E    E      E    E     E   E     E   E     E    E     E    E    E     E    E      E

---------------------------------------------------------------------------
---------------------------------------------------------------------------
---------------------------------------------------------------------------
-9--9--10--10---11--11—-12--12-13-13---14--14--15--15-16--16---------------
-7--7---8---8---9---9---10--10-11-11---12--12--13--13-14--14---------------
---------------------------------------------------------------------------
   
   E   E     E     E     E      E    E    E      E     E      E      E       E       E



Guitar 2:   (nothing)

---------------------------------------------------------------------------
---------------------------------------------------------------------------
---------------------------------------------------------------------------
---------------------------------------------------------------------------
---------------------------------------------------------------------------
---------------------------------------------------------------------------


Guitar 1:  (Off Beat)

---------------------------------------------------------------------------
---------------------------------------------------------------------------
---------------------------------------------------------------------------
---9----9----9-----9-----9-----5----5-----7-----7--7-----------------------
---7----7----7-----7-----7-----3----3-----5-----5--5-----------------------
---------------------------------------------------------------------------

    Q     X      T       X       Q      Q      Q       X      X


---------------------------------------------------------------------------
---------------------------------------------------------------------------
------------------------------------------5--5--5--5--5--5-5--5--5--5------
--9--9---9---9--9---5--5---7--7--7--------3--3--3--3--3--3-3--3--3--3------
--7--7---7---7--7---3--3---5--5--5-----------------------------------------
---------------------------------------------------------------------------

  Q   X    T    X   Q   Q   Q    X   X  Q    Q   X  Q   Q  X  Q  Q   Q  Q  Q   




Guitar 2:  (2x) (Just first bit)

----------19--17---------------------------19--17--------------------------
------17-----------19—20------------17-----------------20--19--------------
---------------------------------------------------------------------------
---------------------------------------------------------------------------
---------------------------------------------------------------------------
---------------------------------------------------------------------------


---------------------------------------------------------------------------
-----t-13---p10---p6---h19----(16x)----------------------------------------
---------------------------------------------------------------------------
---------------------------------------------------------------------------
---------------------------------------------------------------------------
---------------------------------------------------------------------------




Guitar 1:  

---------------------------------------------------------------------------
---------------------------------------------------------------------------
---------------------------------------------------------------------------
-----9---------9-----------------------------------------------------------
-----7---------7-----------------------------------------------------------
---------------------------------------------------------------------------

    H          Q




END
			 

coolcat_888@hotmail.com

If you want to hear me play the song see how it sounds, just email me.
Comments