Powderfinger - Vulture Street Chords & Tabs

 

Vulture Street Chords & Tabs

Powderfinger Chords & Tabs

Version: 1 Type: Tab 0 ratings
1 star 2 stars 3 stars 4 stars 5 stars
comments

Vulture Street Tab

   
Powderfinger - Vulture Street

Track List

#1 Rockin' Rocks
#2 On My Mind
#3 Since You've Been Gone
#4 Love Your Way
#5 Sunsets
#6 Don't Panic
#7 Stumblin'
#8 Roll Right By You
#9 How Far Have We Really Come?
#10 Pockets
#11 A Song Called Everything

_____________________________________________________________________
Track 1 - Powderfinger - Rockin' Rocks

Riff 1 (drop D)


E|--------------------------|-------------------------|
B|--------------------------|-------------------------|
G|--------------------------|-------------------------|
D|--7--7--7--7--7--7--7--7--|-7--7--7--7--7--7--7--7--|
A|--7--7--7--7--7--9--7--10-|-7--7--7--7--7--7--7--7--|
D|--7--7--7--7--7--7--7--7--|-7--10-10-10-10-10-10-10-|

Riff 1 (normal tuning)


E|--------------------------|-------------------------|
B|--------------------------|-------------------------|
G|--2--2--2--2--2--2--2--2--|-2--2--2--2--2--2--2--2--|
D|--2--2--2--2--2--4--2--5--|-2--2--2--2--2--2--2--2--|
A|--0--0--0--0--0--0--0--0--|-0--3--3--3--3--3--3--3--|
E|--------------------------|-------------------------|


riff 2 (drop D)


E|--------------------------|-------------------------|
B|--------------------------|-------------------------|
G|--------------------------|-------------------------|
D|--7--7--7--7--7--5--5--3--|-3--3--3--10--10--10--10-|
A|--7--7--7--7--7--5--5--3--|-3--3--3--10--10--10--10-|
D|--7--7--7--7--7--5--5--3--|-3--3--3--10--10--10--10-|

Riff 2 (normal tuning)


E|--------------------------|-------------------------|
B|--------------------------|-------------------------|
G|--2--2--2--2--2-----------|----------5--5--5--5--5--|
D|--2--2--2--2--2--5--5--3--|-3--3--3--5--5--5--5--5--|
A|--0--0--0--0--0--5--5--3--|-3--3--3--3--3--3--3--3--|
E|-----------------3--3--1--|-1--1--1-----------------|

riff 3 (same for both guitars)


E|------------------|------------------|-------------------------|-------------------------|
B|------------------|------------------|-------------------------|-------------------------|
G|--7-7-7-7-7-7-7-7-|-7-7-7-7-7-9--10--|-10-10-10-10-10-10-10-12-|-12-12-12-12-12-12-12-12-|
D|--7-7-7-7-7-7-7-7-|-7-7-7-7-7-9--10--|-10-10-10-10-10-10-10-12-|-12-12-12-12-12-12-12-12-|
A|--5-5-5-5-5-5-5-5-|-5-5-5-5-5-7--8---|-8--8--8--8--8--8--8--10-|-10-10-10-10-10-10-10-10-|
E|------------------|------------------|-------------------------|-------------------------|

riff 4 (same for both guitars)


E|---------------------|---------------------|---------------------|--------------------|
B|---------------------|---------------------|---------------------|--------------------|
G|-14-14-14-14-14-13---|-12-12-12-12-12-11---|-10-10-10-10-10-10---|-7--7--7--7--7--7---|
D|-14-14-14-14-14-13---|-12-12-12-12-12-11---|-10-10-10-10-10-10---|-7--7--7--7--7--7---|
A|-12-12-12-12-12-11---|-10-10-10-10-10-9----|-8--8--8--8--8--8----|-5--5--5--5--5--5---|
E|---------------------|---------------------|---------------------|--------------------|


riff 5 (drop D)


E|--------------------------|-------------------------|
B|--------------------------|-------------------------|
G|-----------------------7--|-7--7--7-----------------|
D|--7--7--7--7--7--5--5--7--|-7--7--7--3--3--3--3--3--|
A|--7--7--7--7--7--5--5--5--|-5--5--5--3--3--3--3--3--|
D|--7--7--7--7--7--5--5-----|----------3--3--3--3--3--|

Riff 5 (normal tuning)


E|--------------------------|-------------------------|
B|--------------------------|-------------------------|
G|--2--2--2--2--2--------7--|-7--7--7-----------------|
D|--2--2--2--2--2--5--5--7--|-7--7--7--3--3--3--3--3--|
A|--0--0--0--0--0--5--5--5--|-5--5--5--3--3--3--3--3--|
E|-----------------3--3-----|----------1--1--1--1--1--|

structure


riff1 x 6


riff2 x 2


riff3 x 1


riff1 x 6


riff2 x 2


riff3 x 1


stop (drum fill)


riff2 x 2


riff3 x 1


riff4 x 4 with solo over top


E|----------|-----------|----------|----------|
B|-10-------|-13--------|-15-------|-17-------|
G|-12b14----|-15b17-----|-17b19----|-19b21----|
D|----------|-----------|----------|----------|
A|----------|-----------|----------|----------|
E|----------|-----------|----------|----------|

riff2 x 2


riff3 x 1


riff5 x 4


riff2 repeat to end
_____________________________________________________________________
Track 2 - Powderfinger - On My Mind

INTRO:
E-|-----------------|
B-|-----------------|
G-|-----------------|
D-|-8--8--8--8--8\--|
A-|-8--8--8--8--8\--|(x 4 with a slight fret hand mute between strums)
E-|-6--6--6--6--6\--|

1ST VERSE:
E-|-------------------------------------|
B-|-------------------------------------|
G-|-------------------------------------|
D-|-8--8--8--8--8-8--6--6--6--13-13-13--|(x 4)
A-|-8--8--8--8--8-8--6--6--6--13-13-13--|
E-|-6--6--6--6--6-6--4--4--4--11-11-11--|

Baby I got you on my mind
Honey, you wont ever know
How much I need you by my side
Promise you won't ever go
I won't take no from you this time
'cause baby I got you on my mind


PRE CHORUS
E-|------------------------------------------------------------------------------------|
B-|------------------------------------------------------------------------------------|
G-|------------------------------------------------------------------------------------|
D-|-8--8--8--8--8-8---8--8--8--8--8-8---13--13--13--13--13-13---13--13--13--13--13-13--|
A-|-8--8--8--8--8-8---8--8--8--8--8-8---13--13--13--13--13-13---13--13--13--13--13-13--|
E-|-6--6--6--6--6-6---6--6--6--6--6-6---11--11--11--11--11-11---11--11--11--11--11-11--|

Honey I got to show
Just what I can do
Because I think I know
What you're going through


1ST CHORUS:
E-|-------------------------------------|
B-|-------------------------------------|
G-|-10---------8----------6-------------|
D-|-10---------8----------6---------3---|
A-|-8----------6----------4---------3---|
E-|---------------------------------1---|

I hope you feel it the way I feel it
I hope you feel it the way I feel it too


LEAD BREAK & 2ND VERSE:
E-|-------------------------------------|
B-|-------------------------------------|
G-|-------------------------------------|
D-|-8--8--8--8--8-8--6--6--6--13-13-13--|(x 6)
A-|-8--8--8--8--8-8--6--6--6--13-13-13--|
E-|-6--6--6--6--6-6--4--4--4--11-11-11--|

yaeh, I feel it too

So if I had this all my way
Honey, you wont ever know
I'll be there through every night and day
Promise you wont ever go
I won't hold back from you this time
'cause baby I got you on my mind


PRE CHORUS
E-|------------------------------------------------------------------------------------|
B-|------------------------------------------------------------------------------------|
G-|------------------------------------------------------------------------------------|
D-|-8--8--8--8--8-8---8--8--8--8--8-8---13--13--13--13--13-13---13--13--13--13--13-13--|
A-|-8--8--8--8--8-8---8--8--8--8--8-8---13--13--13--13--13-13---13--13--13--13--13-13--|
E-|-6--6--6--6--6-6---6--6--6--6--6-6---11--11--11--11--11-11---11--11--11--11--11-11--|

Yeah honey I got to show
Just what I can do
Because I think I know
What you're going through


2ND CHORUS:
E-|-----------------------------------------------|
B-|-----------------------------------------------|
G-|-10---------8----------6----------------8------|
D-|-10---------8----------6---------3------8------|
A-|-8----------6----------4---------3------6------|
E-|---------------------------------1-------------|

I hope you feel it the way I feel it
Hope you feel it the way I feel it too


3RD VERSE:
E-|-----------------|
B-|-----------------|
G-|-----------------|
D-|-8--8--8--8--8\--|
A-|-8--8--8--8--8\--|(x 4 with a slight fret hand mute between strums)
E-|-6--6--6--6--6\--|

'cause baby I've got you on my mind
I won't take no from you this time
How much I need you by my side
Babe I got you on my mind


THEN PLAY BELOW TILL END:
E-|-------------------------------------|
B-|-------------------------------------|
G-|-------------------------------------|
D-|-8--8--8--8--8-8--6--6--6--13-13-13--|
A-|-8--8--8--8--8-8--6--6--6--13-13-13--| (strum double time after 2 times through)
E-|-6--6--6--6--6-6--4--4--4--11-11-11--| (end on A#5)

Yeah
Yeaehhh on my mind


I tell ya
I won't wait for another day
My heart died baby loose the chains
I won't wait for another day
My heart died when you loose the chains

'cause honey, I got you, I got you on my mind
Yeah honey, I got you, I got you on my mind
Yeah honey, I got you, I got you on my mind
I got you, I got you on my mind
Yeah honey, I got to show


_____________________________________________________________________
Track 3 - Powderfinger - Since You've Been Gone

guitars tuned down half a step

Intro chords

    A#5  C#5  D#5


Eb|----------------|
Bb|----------------|
Gb|-4----7----9----|
Db|-4----7----9----|
Ab|-2----5----7----|
Eb|----------------|

guitar 2


    A#5  C#5  D#5


Eb|-------2----0----|
Bb|-------3----0----|
Gb|--4----2----1----|
Db|--4----0----2----|
Ab|--2----0----2----|
Eb|------------0----|


guitar 3 (intro lead)


    A#5  C#5  D#5


Eb|-------------------------|
Bb|-------------------------|
Gb|-------7--9--9b11-9--7---|
Db|-9--9------------------9-|
Ab|-------------------------|
Eb|-------------------------|


Second guitar plays fills throughout the verse. They're mostly around the open E
so try playing them with your fingers set to an open E and play the fills with you little
finger. then you'll get more realistic sound if you inadvertantly hit any other strings,
and you'll get those kind of bluesy imperfections.


G1


    A#5           C#5            D#5


Eb|---------------------------------------------------|
Bb|--4------------7---------------9-------------------|
Gb|--4------------7---------------9-------------------|
Db|--4------------7---------------9-------------------|
Ab|--2------------5---------------7-------------------|
Eb|---------------------------------------------------|

G2

Eb|--------------(2)-----2--0----(0)-----0-0--0-0--0-0--|
Bb|-(4)-------4--(3)-----3-----3-(0)-----0-0-3--3b-0-3--| (only a slight 1/4 bend)
Gb|-(4)---x-x----(2)-------------(1)--------------------|
Db|-(4)---x------(0)-------------(2)--------------------|
Ab|-(2)--------------------------(2)--------------------|
Eb|------------------------------(0)--------------------|

G1


    A#5           C#5            D#5


Eb|---------------------------------------------------|
Bb|--4------------7---------------9-------------------|
Gb|--4------------7---------------9-------------------|
Db|--4------------7---------------9-------------------|
Ab|--2------------5---------------7-------------------|
Eb|---------------------------------------------------|

G2


Eb|------------------------------(0)----0-3b-00--0-3b0-00--| (again only a 1/4 bend)
Bb|-(4)-----4----(7)---7---------(0)----0----00--0-----00--|
Gb|-(4)-----4----(7)---7---------(1)-----------------------|
Db|-(4)----------(7)-------------(2)-----------------------|
Ab|-(2)----------(5)-------------(2)-----------------------|
Eb|------------------------------(0)-----------------------|

G1


    A#5           C#5            D#5


Eb|---------------------------------------------------|
Bb|--4------------7---------------9-------------------|
Gb|--4------------7---------------9-------------------|
Db|--4------------7---------------9-------------------|
Ab|--2------------5---------------7-------------------|
Eb|---------------------------------------------------|

G2


Eb|------------------------------(0)----0-0-0--0-0-0---|
Bb|-(4)-----4----(7)---7---------(0)----0-0-0--0-2-0---|
Gb|-(4)-----4----(7)---7---------(1)----1-1-1----------|
Db|-(4)----------(7)-------------(2)--------2----------|
Ab|-(2)----------(5)-------------(2)--------2----------|
Eb|------------------------------(0)-3b----------------| (1/4 bend)

G1


    A#5           C#5            D#5


Eb|---------------------------------------------------|
Bb|--4------------7---------------9-------------------|
Gb|--4------------7---------------9-------------------|
Db|--4------------7---------------9-------------------|
Ab|--2------------5---------------7-------------------|
Eb|---------------------------------------------------|

G2


Eb|------------------------------(0)-----0------------|
Bb|-(4)-----4----(7)---7---------(0)-----3b-----------|
Gb|-(4)-----4----(7)---7---------(1)------------------|
Db|-(4)----------(7)-------------(2)------------------|
Ab|-(2)----------(5)-------------(2)------------------|
Eb|------------------------------(0)------------------| (1/4 bend)

Chorus


    C# C#sus4   F# C# G#

Eb|-2--3--3--2-----3-2------------------|
Bb|-3--3--3--3--3--3-3--2---2--3--3--2--|
Gb|-2--2--2--2--0--2-2--2---2--2--2--2--|
Db|-0--0--0--0--0--0-0--2---2--2--2--2--|
Ab|-------------x-------0---0--0--0--0--|
Eb|-------------3-----------------------|

G1


    A#5           C#5            D#5


Eb|--------------------------------------------------|
Bb|--4------------7--------------9-------------------|
Gb|--4------------7--------------9-------------------|
Db|--4------------7--------------9-------------------|
Ab|--2------------5--------------7-------------------|
Eb|--------------------------------------------------|

G2


Eb|----------2--------0----0-----0---0----0-7b-0-3b-0-5-|
Bb|-------4---(4)-----0-3b-------0---0----0----0--------|
Gb|------------------------------2b4-2b4r2--------------|
Db|-----------------------------------------------------|
Ab|-----------------------------------------------------|
Eb|-----------------------------------------------------| (1/4 bend)

G1


    A#5           C#5            D#5


Eb|---------------------------------------------------|
Bb|--4------------7---------------9-------------------|
Gb|--4------------7---------------9-------------------|
Db|--4------------7---------------9-------------------|
Ab|--2------------5---------------7-------------------|
Eb|---------------------------------------------------|

G2


Eb|---0-0-0----------------------------------0-3b-----|
Bb|---5-0-3-5~----------------------------3b-0--------|
Gb|------------------------------------1--------------|
Db|--------------------------------0-2----------------|
Ab|---------------------------------------------------|
Eb|---------------------------------------------------| (1/4 bend)

Bridge


Eb|--------------------------------------------------------------------|
Bb|-4--5--5--5--4---7--9--9--7---9--10--9--10--10--9--10--10--10--9----|
Gb|-4--4--4--4--4---7--7--7--7---9--9---9--9---9---9--9---9---9---9----|
Db|--------------------------------------------------------------------|
Ab|--------------------------------------------------------------------|
Eb|--------------------------------------------------------------------| x2


then


Eb|--------------------------------------------------------------------|
Bb|--------------------------------------------------------------------|
Gb|-11b13--11~-----------7--9--9--9b11--9--7---------------------------|
Db|-----------------9-9------------------------9---9-------------------|
Ab|--------------------------------------------------------------------|
Eb|--------------------------------------------------------------------| x2


_____________________________________________________________________
Track 4 - Powderfinger - Love Your Way

into, verse 1 - acoutic guitar 1
E |-------0-----------0--0----|--5---------5------5--------|
B |-------0-----------0--0----|--5---------5------5--------|
G#|-------1-----------1--0----|--5-h-6--6--6------6--0-----|
E |--2----2-----------2--0----|--5------5--5------5--0-----|
B |--2----2-----------2--0----|--5-h-7--7--7------7--0-----|
E |--2----------------2--0----|--5-------------------0-----|

big accented bit where the rest of the band joins in - guitar 1
E |-----|---------------------------|
B |-----|---------------------------|
G#|-----|---------------------------|
E |-5-5-|-5---5-5-5---7-7-7---7-7-7-|
B |-3-3-|-3---5-5-5---5-5-5---7-7-7-|
E |-----|-----5-5-5-----------7-7-7-|


big accented bit second guitar (standard tuning)
E |-2-2-|-2---0-0-0---0-0-0---------|
B |-3-3-|-3---2-2-2---0-0-0---4-4-4-|
G |-2-2-|-2---2-2-2---1-1-1---4-4-4-|
D |-0-0-|-0---2-2-2---2-2-2---4-4-4-|
A |-0-0-|-0---0-0-0---2-2-2---2-2-2-|
E |-----|-------------0-0-0---------|

now guitar 1 doesn't really feature much anymore. It strums along a bit in the second verse.
mainly standard tuned electric and acoustic now with the following chords

    F#m  E   D
E |-0----0---2----|
B |-0----0---3----|
G |-2----1---2----|
D |-4----2---0----|
A |-4----2---0----|
E |------0--------|


guitar 3 over top
      F#m           E             D
E |------------------------------------------------------------|
B |----------10--------12--10-------------10----------10-------|
G |---9h11-------11------------11---9h11------11--11-----------|
D |------------------------------------------------------------|
A |------------------------------------------------------------|
E |------------------------------------------------------------|

      F#m           E              D
E |---------------------------------12-----12------10-----10---|
B |----------10--------12p10----10-----------------------------|
G |---9h11-------11----------11---------11----11-------11------|
D |------------------------------------------------------------|
A |------------------------------------------------------------|
E |------------------------------------------------------------|

verse 2,this verse has a slide guitar over it as well but i'm not tabbing it.

F#m        E  D
   wading in deeper......


then big accented bit again


now for the interlude with guitar solo and until the end, just play these chords over,
they're the same as the ones for the recurring big accented bit but just played evenly

    D     A     E     B
E |-2--2--0--0--0--0-------|
B |-3--3--2--2--0--0--4--4-|
G |-2--2--2--2--1--1--4--4-|
D |-0--0--2--2--2--2--4--4-|
A |-0--0--0--0--2--2--2--2-|
E |-------------0--0-------|

doubled also as barre chords


    D     A     E     B
E |------------------------|
B |-7--7--5--5--9--9--7--7-|
G |-7--7--6--6--9--9--8--8-|
D |-7--7--7--7--9--9--9--9-|
A |-5--5--7--7--7--7--9--9-|
E |-------5--5--------7--7-|


_____________________________________________________________________
Track 5 - Powderfinger - Sunsets
into/prechorus - guitar 1 and 2


G1
E |-----------------0----------|----2--2---------------|
B |-----------------0-------3--|----3--3---------------|
G |--2--2--2--2--2--1-------0--|----2--2---------------|
D |--2--2--2--2--2--2---0---0--|----0--0---------------|
A |--0--0--0--0--0--2---0---x--|----0--0---------------|
E |-----------------0--(0)--3--|-----------------------|
G2
E |----------------------------|-----------------------|
B |----------------------------|-----------------------|
G |----------------------------|-----------------------|
D |--11-11-11-11-11-9---7---9--|----7--7-----/9---7----|
A |----------------------------|-----------9--------9--|
E |----------------------------|-----------------------|

G1
E |-----------------0----------|----2--2---------------|
B |-----------------0-------3--|----3--3---------------|
G |--2--2--2--2--2--1-------0--|----2--2---------------|
D |--2--2--2--2--2--2---0---0--|----0--0---------------|
A |--0--0--0--0--0--2---0---x--|----0--0---------------|
E |-----------------0--(0)--3--|-----------------------|
G2
E |----------------------------|-----------------------|
B |----------------------------|-----------------------|
G |----------------------------|-----------------------|
D |--11-11-11-11-11-9---7---9--|----7--7---9b11r9-7----|
A |----------------------------|--------------------9--|
E |----------------------------|-----------------------|

G1
E |-----------------0----------|----2--2---------------|
B |-----------------0-------3--|----3--3---------------|
G |--2--2--2--2--2--1-------0--|----2--2---------------|
D |--2--2--2--2--2--2---0---0--|----0--0---------------|
A |--0--0--0--0--0--2---0---x--|----0--0---------------|
E |-----------------0--(0)--3--|-----------------------|
G2
E |----------------------------|-----------------------|
B |----------------------------|-----------------------|
G |------------------------9b11|9b11r9-----------------|
D |-----7-7-7-9b11-9p7--7------|-----------------------|
A |--7h9---9----------9--------|-----------------------|
E |----------------------------|-----------------------|
[ Tab from: http://www.guitartabs.cc/tabs/p/powderfinger/vulture_street_tab.html ]
G1
E |-----------------0----------|----2--2------------------2--------------|
B |-----------------0-------3--|----3--3------------------3--------------|
G |--2--2--2--2--2--1-------0--|----2--2------------------2--------------|
D |--2--2--2--2--2--2---0---0--|----0--0------------------0--------------|
A |--0--0--0--0--0--2---0---x--|----0--0------------------0--------------|
E |-----------------0--(0)--3--|-----------------------------------------|
G2
E |----------------------------|-----------------------------------------|
B |----------------------------|-----------------------------------------|
G |----------------------------|--------------------7-7/9--------7-7/9---|
D |--11-11-11-11-11-9---7---9--|----7--7------9-7----------7h9p7---------|
A |----------------------------|------------------9-------------9--------|
E |----------------------------|-----------------------------------------|


verse


A  E  G  D

prechorus/chorus - maybe i should drop by.....


E |-----------------0----------|----2--2---------------|
B |-----------------0-------3--|----3--3---------------|
G |--2--2--2--2--2--1-------0--|----2--2---------2h4p2-|
D |--2--2--2--2--2--2---0---0--|----0--0------2h4------|
A |--0--0--0--0--0--2---0---x--|----0--0---2h4---------|
E |-----------------0--(0)--3--|-----------------------|

E |-----------------0----------|----2--2---------------|
B |-----------------0-------3--|----3--3---------------|
G |--2--2--2--2--2--1-------0--|----2--2---------------|
D |--2--2--2--2--2--2---0---0--|----0--0---------------|
A |--0--0--0--0--0--2---0---x--|----0--0---2p0-----0---|
E |-----------------0--(0)--3--|---------------2p0---2-|

E |-----------------0----------|----2--2---------------|
B |-----------------0-------3--|----3--3---------------|
G |--2--2--2--2--2--1-------0--|----2--2---------------|
D |--2--2--2--2--2--2---0---0--|----0--0---------------|
A |--0--0--0--0--0--2---0---x--|----0--0---------------|
E |-----------------0--(0)--3--|-----------------------|

     E                              F#m    D               D     Dsus4   D
E |--0------0------0------0----|----2------2-----------|---2----2h3-3---3p2--|
B |--0------0------0------0----|----2------3-----------|---3----3---3---3----|
G |--1------1------1------1----|----2------2-----------|---2----2---2---2----|
D |--2------2------2------2----|----4------0-----------|---0----0---0---0----|
A |--2------2------2------2----|----4------0-----------|---0----0---0---0----|
E |--0------0------0------0----|----2------------------|---------------------|

verse - A E G D


with guitar 2
B|-------------------------------|
G|-----6b7r6\4-4----4b5r4\2--2---|
D|-------------------------------|


prechorus/chorus
verse - A E G D x 4 (hold last D)
prechorus w/solo G2

G1
E |-----------------0----------|----2--2---------------|
B |-----------------0-------3--|----3--3---------------|
G |--2--2--2--2--2--1-------0--|----2--2---------------|
D |--2--2--2--2--2--2---0---0--|----0--0---------------|
A |--0--0--0--0--0--2---0---x--|----0--0---------------|
E |-----------------0--(0)--3--|-----------------------|
G2
E |----------------------------|-----------------------|
B |-/10------------------------|-----------------------|
G |------------------------9b11|---9-----6h7p6h7p6-----|
D |----------------------------|-----------------------|
A |----------------------------|-----------------------|
E |----------------------------|-----------------------|

G1
E |-----------------0----------|----2--2-------------------------------|
B |-----------------0-------3--|----3--3-------------------------------|
G |--2--2--2--2--2--1-------0--|----2--2-------------------------------|
D |--2--2--2--2--2--2---0---0--|----0--0-------------------------------|
A |--0--0--0--0--0--2---0---x--|----0--0-------------------------------|
E |-----------------0--(0)--3--|---------------------------------------|
G2
E |----------------------------|---------------------------------------|
B |----------------------------|---------------------------------------|
G |----------------------------|--------------9-9b11-9--6--------------|
D |--7--------------7---7--9---|-9b11r9p7---7-------------9b11r9p7---7-|
A |--------------7h9-----------|----------9------------------------9---|
E |----------------------------|---------------------------------------|

G1
E |-----------------0----------|----2--2-------------------------------|
B |-----------------0-------3--|----3--3-------------------------------|
G |--2--2--2--2--2--1-------0--|----2--2-------------------------------|
D |--2--2--2--2--2--2---0---0--|----0--0-------------------------------|
A |--0--0--0--0--0--2---0---x--|----0--0-------------------------------|
E |-----------------0--(0)--3--|---------------------------------------|
G2
E |------------------------------10-11-12------------------------------|
B |-/10---------------------12b14---------12b14-10----10---------------|
G |------------------------------------------------11------------------|
D |--------------------------------------------------------------------|
A |--------------------------------------------------------------------|
E |--------------------------------------------------------------------|

G1&G2
E |--0------0------0------0----|----2------2-----------|---2--------------|
B |--0------0------0------0----|----2------3-----------|---3--------------|
G |--1------1------1------1----|----2------2-----------|---2--------------|
D |--2------2------2------2----|----4------0-----------|---0--------------|
A |--2------2------2------2----|----4------0-----------|---0--------------|
E |--0------0------0------0----|----2------------------|------------------|

_____________________________________________________________________
Track 6 - Powderfinger - Don't Panic

INTRO / VERSE:
    Em       G       Bm      A
E-|-----------------------------|
B-|----0------------------------|
G-|----0-------0-------4-----2--|
D-|----2-------0-----4-4-----2--|
A-|-2--2-------2--0--2-2--0--0--|
E-|-0--0--2--3-3----------------|

CHORUS:
    C                        F
E-|-0--0--0--0--0--0--0--0---1--1--1--1--1--1--1--1--|
B-|-1--1--1--1--1--1--1--1---1--1--1--1--1--1--1--1--|
G-|-0--0--0--0--0--0--0--0---2--2--2--2--2--2--2--2--|
D-|-2--2--2--2--2--2--2--2---3--3--3--3--3--3--3--3--|
A-|-3--3--3--3--3--3--3--3---3--3--3--3--3--3--3--3--|(x 4)
E-|--------------------------1--1--1--1--1--1--1--1--|

OUTRO:
E-|-1--1--1--1---------------------1--1--1--1-------------------|
B-|-1--1--1--1----------------1----1--1--1--1----------------1--|
G-|-2--2--2--2-------0------0------2--2--2--2-------0------0----|
D-|-3--3--3--3-----0------0--------3--3--3--3-----0------0------|(x 4)
A-|-3--3--3--3---2------3----------3--3--3--3---3------2--------|
E-|-1--1--1--1---------------------1--1--1--1-------------------|


E-|-3--3--3--3---------------------3--3--3--3-------------------|
B-|-3--3--3--3----------------1----3--3--3--3----------------1--|
G-|-4--4--4--4-------0------0------4--4--4--4-------0------0----|
D-|-5--5--5--5-----0------0--------5--5--5--5-----0------0------|
A-|-5--5--5--5---3------2----------5--5--5--5---3------2--------|
E-|-3--3--3--3---------------------3--3--3--3-------------------|

E-|-3--3--3--3------------------------------------------|
B-|-3--3--3--3---10-10-10-10-------------------------5--|
G-|-4--4--4--4---10-10-10-10-------10------9------7--5--|
D-|-5--5--5--5---10-10-10-10----10-------9------7----5--|
A-|-5--5--5--5---8--8--8--8---8--------7------5------3--|
E-|-3--3--3--3------------------------------------------|

_____________________________________________________________________
Track 7 - Powderfinger - Stumblin'

Guitars tuned down half a step
Eb-|---------------------------------|
Bb-|---------------------------------|
Gb-|------9-----9-------7--7--7------|
Db-|------9-----9-------7--7--7------|
Ab-|------7-----7-------5--5--5------|
Eb-|--0-0---0-0------0---------------|


Chorus

G1
Eb-|----------------------------------------------------|
Bb-|----------------------------------------------------|
Gb-|--4-4--------7--7--7--7-----------------------------|
Db-|--4-4--5--5--7--7--7--7---7--7--7--7--7--7--7--7----|
Ab-|--2-2--5--5--5--5--5--5---7--7--7--7--7--7--7--7----|
Eb-|-------3--3---------------5--5--5--5--5--5--5--5----|


G2
Eb-|--------------------------------------------------|
Bb-|-------3--3--3-3-3-3-3----------------------------|
Gb-|--4-4--0--0--2-2-2-2-2----2-2-2-2-2-2-2-2-2-2-2---|
Db-|--4-4--0--0--0-0-0-0-0----2-2-2-2-2-2-2-2-2-2-2---|
Ab-|--2-2--x--x-----3---3-----0-0-0-0-0-0-0-0-0-0-0---|
Eb-|-------3--3------------------3---3---3---3---3----|


Lead break before second verse - over verse chords
Eb|----------------------------------------------------|
Bb|----15b17r15-12--10b12r10p8---8----8h10-8-----------|
Gb|----------------------------9---9---------9--7--9---|
Db|----------------------------------------------------|
Ab|----------------------------------------------------|
Eb|----------------------------------------------------|


VERSE 2

CHORUS

then
Eb-|---------0----3----------|
Bb-|---------0----3----------|
Gb-|----6----1----4----6-----|
Db-|----7----2----5----7-----|
Ab-|----7----2----5----7-----|
Eb-|----5----0----3----5-----|

bass break
Gb-|----------------------------------|
Db-|----------------------------------|
Ab-|--9-7---9-7---9-7---7-7-7-7-7-7-7-|
Eb-|------0-----0-----0---------------|


_____________________________________________________________________
Track 8 - Powderfinger - Roll Right By You

Guitar 1 Tuned down half a step


    A#m   F#
Eb-|-2-----3-----|
Bb-|-3-----3-----|
Gb-|-4-----4-----|
Db-|-4-----5-----|
Ab-|-2-----5-----|
Eb-|-------3-----|

Guitar 2 Tuned down half a step (capo on 2nd fret, or 1st fret on a standard tuned guitar,
bear with me here...)
(notes relative to the capo)


    A#m   F#
|---0-----1-----|
|---1-----1-----|
|---2-----2-----|
|---2-----3-----|
|---0-----3-----|
|---------1-----|


OVERLAY
Eb-|----------------------------------------------|
Bb-|-------7--9-9b10r9--7-----7------------7------|
Gb-|-------7--9-9b10r9--7-----7------------7------|
Db-|--9--9-7--9-9b10r9--7--9--7---9--7-9-9---9-9--|
Ab-|----------------------------------------------|
Eb-|----------------------------------------------|


CHORUS:

Guitar1 (joins for second half of chorus)

    Eb                 C#     C#/C     G#
Eb|-----0-0-----0-0--------------------5------|
Bb|-----0-0-----0-0--------------------5------|
Gb|-9-9-1-1-9-9-1-1---7-7-7--7-7-7-----6------|
Db|-9-9-2-2-9-9-2-2---7-7-7--7-7-7-----7------|
Ab|-7-7-2-2-7-7-2-2---5-5-5--4-4-4-----7------|
Eb|-----0-0-----0-0--------------------5------|

guitar 2

    Eb Ebsus4 Eb Eb Ebsus4 Eb    C#      G#/C  G#
|---2--3-3-3--2--2-3-3-3-2-----------------------------|
|---3--3-3-3--3--3-3-3-3-3---------3------3------3-----|
|---2--2-2-2--2--2-2-2-2-2---------0------0------0-----|
|---0--0-0-0--0--0-0-0-0-0-------2------0-------0------|
|---0--0-0-0--0--0-0-0-0-0-----3------2--------x-------|
|----------------------------------------------3-------|

Solo Rhythm
Eb|----------------------------------|
Bb|-3---3---3---3--------------------|
Gb|-6---6---6---6--------------------|
Db|-6---6---6---6---7---7---7---7----|
Ab|-4---4---4---4---7---6---7---6----|
Eb|-----------------5---5---5---5----|

_____________________________________________________________________
Track 9 - Powderfinger - How Far Have We Really Come?

E-|-------------------------------------------------------------0-------------|
B-|-------------------0--h--1--x--x----------------------/3-----3--3----------|
G-|-2--------x--------2--------x--x--x-------------------/4-----2--0----------|
D-|-2--------x--------2--------------x----------------------------------------|
A-|-0--------x--------0-----------------x--------x----------------------------|
E-|-------------------------------------3--------3----------------------------|


    PM_______________                   PM_________


    F                                   C


    1  .  .  +  .  .  2  .  .  +  .  .  3  .  .  +  .  .  4  .  .  +  .  .


E-|----------0--------------0--------------------------0----------------------|
B-|-1--------1-----------------------------------------1----------------------|
G-|-2--------0--------------------------0--------------0--0-----0--0----------|
D-|-3--------3-----------------3--------2-----------------0-h2-----0----------|
A-|-3--------3--------------------------3--------3----------------------------|
E-|---------------------------------------------------------------------------|

    Am                                  G


    1  .  .  +  .  .  2  .  .  +  .  .  3  .  .  +  .  .  4  .  .  +  .  .


E-|---------------------------------------------------------------------------|
B-|-------------------3--p--1--x--x--------------3-----3--3-----3--3----------|
G-|-2--------x--------2--------x--x--x-----------0-----0--4-----2--0----------|
D-|-2--------x--------2--------------x-----------0-----0----------------------|
A-|-0--------x--------0-----------------x--------x----------------------------|
E-|-------------------------------------3-------------------------------------|


    PM_______________                   PM__


    F                                   C


    1  .  .  +  .  .  2  .  .  +  .  .  3  .  .  +  .  .  4  .  .  +  .  .


E-|----------0--------------0--------------------0--------------0-------------|
B-|-1--------1-----------------------------------1--------------1--1----------|
G-|-2--------0--------------------------0--------0--------0-----0--0----------|
D-|-3--------3-----------------3--------2--------2--------2--------2----------|
A-|-3--------3--------------------------3-----------------3--------3----------|
E-|---------------------------------------------------------------------------|


Verse 1 - repeat intro chord progression

Despite the miseries
And the lessons learned from history
The pattern still repeats
Never to surrender don't you ever repeat


CHORUS


    F  C/E Dm Em       F  C/E Dm  C
E-|-1------1--0--------1------1---0---|
B-|-1--1---3--0--------1--1---3---1---|
G-|-2--0---2--0--------2--0---2---0---|
D-|-3--2---0--2--------3--2---0---2---|
A-|-3--3---0--2--(x3)--3--3-------3---|
E-|-1--0------0--------1--0-----------|


How far have we really come?
Until the ones who are leading us
Make peace their resolution tonight
Make peace your resolution tonight

Verse 2


There's an arms race to be run
Building bigger better dagger headed bombs
So let's drink to the daughters and sons
Never to return to their mother's arms

Chorus 2


How far have we really come?
Until the ones who are leading us
Make peace their resolution tonight
Make peace your resolution tonight


BRIDGE CHORDS:


    G     Am  C    G     Am  C    G Am    C  F    G hold


E-|-3----|-0--0--|-3----|-0--0--|-3--0--|-0--1--|-3----|
B-|-3----|-1--1--|-3----|-1--1--|-3--1--|-1--1--|-3----|
G-|-0----|-2--0--|-0----|-2--0--|-0--2--|-0--2--|-0----|
D-|-0----|-2--2--|-0----|-2--2--|-0--2--|-2--3--|-0----|
A-|-x----|-0--3--|-x----|-0--3--|-x--0--|-3--3--|-x----|
E-|-3----|-------|-3----|-------|-3-----|----1--|-3----|

For every battle lost and won are these the ones that we offer up?

LAST CHORUS CHORDS


    F  C/E Dm  Em        F  C/E Dm  C


E-|---------1---0-------------------0---|
B-|-1---1---3---0--------1---0--3---1---|
G-|-2---0---2---0--------2---0--2---0---|
D-|-3---2---0---2--------3---2--0---2---|
A-|-3---3-------2--(x7)--3---2------3---|
E-|-1---0-------0--------1---0----------|


How far have we really come?
Until the ones who are leading us
Make peace their resolution tonight
Make peace your resolution tonight

Chords For Standard Tuned Guitar


Verse/Intro


    Em   D   C   G


E|--0----2---0---3--|
B|--0----3---1---3--|
G|--0----2---0---0--|
D|--2----0---2---0--|
A|--2----0---3---2--|
E|--0------------3--|

Chorus


    C   G/B  Am  Bm


E|--0--------0---2--|
B|--1----3---1---3--|
G|--0----0---2---4--|
D|--2----0---2---4--|
A|--3----2---0---2--|
E|------------------| x3


    C   G/B  Am  G


E|--0--------0---3--|
B|--1----3---1---3--|
G|--0----0---2---0--|
D|--2----0---2---0--|
A|--3----2---0---2--|
E|---------------3--|

Bridge


    D     Em  G    D     Em  G    D  Em   G  C    D hold


E-|-2----|-0--3--|-2----|-0--3--|-2--0--|-3--0--|-2------|
B-|-3----|-0--3--|-3----|-0--3--|-3--0--|-3--1--|-3------|
G-|-2----|-0--0--|-2----|-0--0--|-2--0--|-0--0--|-2------|
D-|-0----|-2--0--|-0----|-2--0--|-0--2--|-0--2--|-0------|
A-|------|-2--x--|------|-2--x--|----2--|-x--3--|--------|
E-|------|-0--3--|------|-0--3--|----0--|-3-----|--------|


_____________________________________________________________________
Track 10 - Powderfinger - Pockets

ACOUSTIC RHYTHM PART:
    Am                              Am/G
E-|-0---0---0---0---0---0---0---0---0---0---0---0---0---0---0---0--|
B-|-1---1---1---1---1---1---1---1---1---1---1---1---1---1---1---1--|
G-|-2---2---2---2---2---2---2---2---2---2---2---2---2---2---2---2--|
D-|-2---2---2---2---2---2---2---2---2---2---2---2---2---2---2---2--|
A-|-0---0---0---0---0---0---0---0---x---x---x---x---x---x---x---x--|
E-|---------------------------------3---3---3---3---3---3---3---3--| (little finger 
low G)


    F                           D               Dsus4    Dsus2
E-|-1---1---1---1---1---1-------2---2---2---2---2h3--2---0h2--0---0--|
B-|-1---1---1---1---1---1---0---3---3---3---3---3----3---3----3---3--|
G-|-2---2---2---2---2---2---0---2---2---2---2---2----2---2----2---2--|
D-|-3---3---3---3---3---3---0---0---0---0---0---0----0---0----0---0--|
A-|-3---3---3---3---3---3--------------------------------------------|
E-|-1---1---1---1---1---0--------------------------------------------|


LEAD BIT:
E-|--------------5-----------------5---------------------|
B-|-------5-----------------5----------------6-5---------|
G-|---5-----5----------5------5----------5---------5--7--|
D-|-7---7-----7------7---7------7------7---7-----7-------|
A-|------------------------------------------------------|
E-|------------------------------------------------------|


2ND PART

    1   &   2   &   3   &   4   &
E-|------------------------------------|
B-|------------------------------------|
G-|---2-----2-----2-----2-----2--------|
D-|-0-2-----2-----2-----2-----2--------| x 16
A-|-x-0-----0-----0-----0-----0--------|
E-|-3----------------------------------|


now with similar rhythm feel to above

E-|-3--3-------------3--3-------------3--3-------------3--3--------------------|
B-|-3--3----2--2--2--3--3----2--2--2--3--3----2--2--2--3--3--7-7-7-7--9-9-9-9--|
G-|-0--0----2--2--2--0--0----2--2--2--0--0----2--2--2--0--0--7-7-7-7--9-9-9-9--|
D-|-0--0--0-2--2--2--0--0--0-2--2--2--0--0--0-2--2--2--0--0--7-7-7-7--9-9-9-9--|
A-|-x--x--x-0--0--0--x--x--x-0--0--0--x--x--x-0--0--0--x--x--5-5-5-5--7-7-7-7--|
E-|-3--3--3----------3--3--3----------3--3--3----------3--3-----------0-0-0-0--|


OUTRO CHORDS:
    A                   Am/G
E-|-----------------------------------------|
B-|-1-1--1-1--1-1--1-1--1-1--1-1--1-1--1-1--|
G-|-2-2--2-2--2-2--2-2--2-2--2-2--2-2--2-2--|
D-|-2-2--2-2--2-2--2-2--2-2--2-2--2-2--2-2--|
A-|-0-0--0-0--0-0--0-0--x-x--x-x--x-x--x-x--|
E-|---------------------3-3--3-3--3-3--3-3--|


    F              Dsus2
E-|-1-1--1-1--1-1--0--0-0--0-0-0--0-0-0--|
B-|-1-1--1-1--1-1--3--3-3--3-3-3--3-3-3--|
G-|-2-2--2-2--2-2--2--2-2--2-2-2--2-2-2--|
D-|-3-3--3-3--3-3--0--0-0--0-0-0--0-0-0--|
A-|-3-3--3-3--3-3------------------------|
E-|-1-1--1-1--1-0------------------------|


_____________________________________________________________________
Track 11 - Powderfinger - A Song Called Everything

VERSES:
    A        Dm
E-|----------1---3p1-3p1--|
B-|-2---3-2--3------------|
G-|-2--------2------------|
D-|-2--------0------------| (let the chords ring out while playing the extra notes)
A-|-0---------------------|
E-|-----------------------|

PRE CHORUS:
    Em            G             C
E-|---------------3--3-3-3-3-3------------------------------|
B-|----0-0-0-0-0--3--3-3-3-3-3--5--6-6-6-5-5--5--6-6-6-5-5--|
G-|-0--0-0-0-0-0--4--4-4-4-4-4--5--5-5-5-5-5--5--5-5-5-5-5--|
D-|-2--2-2-2-2-2--5--5-5-5-5-5--5--5-5-5-5-5--5--5-5-5-5-5--|
A-|-2--2-2-2-2-2--5--5-5-5-5-5--3--3-3-3-3-3--3--3-3-3-3-3--|
E-|-0--0-0-0-0-0--3--3-3-3-3-3------------------------------|

    Em            G             C       B/C     A
E-|---------------3--3-3-3-3-3--0--0-0--0--0-0----------------|
B-|----0-0-0-0-0--3--3-3-3-3-3--1--1-1--1--1-1--2--2-2-2-2-2--|
G-|-0--0-0-0-0-0--4--4-4-4-4-4--0--0-0--0--0-0--2--2-2-2-2-2--|
D-|-2--2-2-2-2-2--5--5-5-5-5-5--2--2-2--0--0-0--2--2-2-2-2-2--|
A-|-2--2-2-2-2-2--5--5-5-5-5-5--3--3-3--2--2-2--0--0-0-0-0-0--|
E-|-0--0-0-0-0-0--3--3-3-3-3-3--------------------------------|

CHORUS
    G             Dsus4         Em            C
E-|-3--3-3-3-3-3--0--0-0-0-0-0--0--0-0-0-0-0--0--0-0-0-0-0--|
B-|-3--3-3-3-3-3--3--3-3-3-3-3--0--0-0-0-0-0--1--1-1-1-1-1--|
G-|-0--0-0-0-0-0--2--2-2-2-2-2--0--0-0-0-0-0--0--0-0-0-0-0--|
D-|-0--0-0-0-0-0--0--0-0-0-0-0--2--2-2-2-2-2--2--2-2-2-2-2--|
A-|-2--2-2-2-2-2----------------2--2-2-2-2-2--3--3-3-3-3-3--|
E-|-3--3-3-3-3-3----------------0--0-0-0-0-0----------------|

SOLO RHYTHM / OUTRO:
    Em            G             D
E-|---------------3--3-3-3-3-3------------------------------|
B-|----0-0-0-0-0--3--3-3-3-3-3--7--7-7-7-7-7--7--7-7-7-7-7--|
G-|-0--0-0-0-0-0--4--4-4-4-4-4--7--7-7-7-7-7--7--7-7-7-7-7--|
D-|-2--2-2-2-2-2--5--5-5-5-5-5--7--7-7-7-7-7--7--7-7-7-7-7--|
A-|-2--2-2-2-2-2--5--5-5-5-5-5--5--5-5-5-5-5--5--5-5-5-5-5--|
E-|-0--0-0-0-0-0--3--3-3-3-3-3------------------------------|
Comments