Powderfinger - Sunsets Chords & Tabs

 

Sunsets Chords & Tabs

Powderfinger Chords & Tabs

Version: 1 Type: Tab 0 ratings
1 star 2 stars 3 stars 4 stars 5 stars
comments

Sunsets Tab

   
Band: Powderfinger
Song Title: Sunsets
Album: Vulture Street
Tabbed by Ryan Bromley

This is an awesome song by an awesome band and it's a great song to play. Hop you like it!

INTRO:

G1

A   E   G   D x4

G2

A   E   G   D x2

E-----------------------------|
A---7--9----------------------|
D---------7-7-7--9b-----------|
G---------------------9b-9b-9-|
B-----------------------------|
e-----------------------------|

A   E   G   D x1

VERSE:

G1

A  E      G   D          A E G D
Sunsets over the beaches

A  E      G   D                        A E G D
Each day looking for new ways to go on

G2

Same as Guitar 1 for verse


CHORUS:

G1

A             E       G         D
Maybe I should have dropped by, maybe I should of called

A             E          G         D
Maybe I should have followed you, and beat down your door

A             E          G           D
Maybe it's gonna be breaking you by the time you fall

E                        F#            D    D
But to shower you with pity, will do no good at all, no good at all

G2

Same as Guitar 1 in Chorus


VERSE 2:

G1

A    E         G     D                          A E G D
Slow burn, watching the world turn, from my arms
[ Tab from: http://www.guitartabs.cc/tabs/p/powderfinger/sunsets_tab.html ]
A    E        G      D                        A E G D
No way, of measuring each day until it's gone

G2

Same as Guitar 1 in Verse 2

CHORUS:

G1

Chorus 2 Same as chorus 1

G2

Chorus 2 Same as chorus 1

VERSE 3:

G1

A   E      G    D                      A E G D
Sunrise building a reprise in my heart

A   E      G      D                         A E G D
Regret tied around my chest plays it's part

A   E   G   D x2

G2

A   E   G   D x2

solo for G2

E--------------------------------|
A--------------------------------|
D--------------------------------|
G------9h--11--9-----6h7--6h7--6-|
B--10----------------------------|
e--------------------------------|

E-------------------------------|
A-----7h9-----------------------|
D--7-------7-9-7--9b--7---------|
G-------------------------------|
B-------------------------------|
e-------------------------------|

E----------------------------------------|
A----------------------------------------|
D----------------------------------------|
G-----------------------------9-11-9-----|
B--10--12b------------12b--10---------10-|
e-----------10-11-12---------------------|

CHORUS:

G1

E                        F#      D   D
But to shower you with pity will do no good at all

G2

Same as Guitar 1 for chorus


ENDING:

G1

A   E         G  D
Watching the sunsets, sunsets, sunsets, sunsets

A   E              G   D
Over the beaches, beaches, beaches, beaches

Do this 4 times

G2

Same as Guitar 1 for Ending


Well thats it. hope you enjoy!
Comments