Powderfinger - Rockin Rocks Chords & Tabs

 

Rockin Rocks Chords & Tabs

Powderfinger Chords & Tabs

Version: 1 Type: Tab 0 ratings
1 star 2 stars 3 stars 4 stars 5 stars
comments

Rockin Rocks Tab

POWDERFINGER
ROCKIN ROCKS
VULTURE STREET
BY KnickaBocka

THIS IS HOW IT IS PLAYED IN STANDARD TUNING. 

Who Just Says You?.........

E|--------------------------|-------------------------|
B|--------------------------|-------------------------|
G|--2--2--2--2--2--2--2--2--|-2--2--2--2--2--2--2--2--|
D|--2--2--2--2--2--4--2--5--|-2--2--2--2--2--2--2--2--| X6
A|--0--0--0--0--0--0--0--0--|-0--3--3--3--3--3--3--3--|
E|--------------------------|-------------------------|

If Ya Meet Me In The Mornin.......

E|--------------------------|-------------------------|
B|--------------------------|-------------------------|
G|--2--2--2--2--2-----------|----------5--5--5--5--5--|
D|--2--2--2--2--2--5--5--3--|-3--3--3--5--5--5--5--5--|X2
A|--0--0--0--0--0--5--5--3--|-3--3--3--3--3--3--3--3--|
E|-----------------3--3--1--|-1--1--1-----------------|

The Sky Will Fall And The Planets Swoon......

E|---------------|---------------|----------------------|------------------------|
B|---------------|---------------|----------------------|------------------------|
G|7-7-7-7-7-7-7--|-7-7-7-7-7-9-10|-10-10-10-10-10-10-12-|12-12-12-12-12-12-12-12-|
D|7-7-7-7-7-7-7--|-7-7-7-7-7-9-10|10-10-10-10-10-10-12--|12-12-12-12-12-12-12-12-|X1
A|5-5-5-5-5-5-5--|-5-5-5-5-5-7--8|-8--8--8--8--8--8-10--|10-10-10-10-10-10-10-10-|
E|---------------|---------------|----------------------|------------------------|

Gonna Bend And Shake It Loose...........

E|--------------------------|-------------------------|
B|--------------------------|-------------------------|
G|--2--2--2--2--2--2--2--2--|-2--2--2--2--2--2--2--2--|
D|--2--2--2--2--2--4--2--5--|-2--2--2--2--2--2--2--2--| X6
A|--0--0--0--0--0--0--0--0--|-0--3--3--3--3--3--3--3--|
E|--------------------------|-------------------------|

Happy Memories...I Remember.....

E|--------------------------|-------------------------|
B|--------------------------|-------------------------|
G|--2--2--2--2--2-----------|----------5--5--5--5--5--|
D|--2--2--2--2--2--5--5--3--|-3--3--3--5--5--5--5--5--|X2
A|--0--0--0--0--0--5--5--3--|-3--3--3--3--3--3--3--3--|
E|-----------------3--3--1--|-1--1--1-----------------|

Juggling Scissors In The Afternoon

E|---------------|---------------|----------------------|------------------------|
B|---------------|---------------|----------------------|------------------------|
G|7-7-7-7-7-7-7--|-7-7-7-7-7-9-10|-10-10-10-10-10-10-12-|12-12-12-12-12-12-12-12-|
D|7-7-7-7-7-7-7--|-7-7-7-7-7-9-10|10-10-10-10-10-10-12--|12-12-12-12-12-12-12-12-|X1
A|5-5-5-5-5-5-5--|-5-5-5-5-5-7--8|-8--8--8--8--8--8-10--|10-10-10-10-10-10-10-10-|
E|---------------|---------------|----------------------|------------------------|

[DRUMS]

Ive Got Happy Memories........
[ Tab from: http://www.guitartabs.cc/tabs/p/powderfinger/rockin_rocks_tab.html ]
E|--------------------------|-------------------------|
B|--------------------------|-------------------------|
G|--2--2--2--2--2-----------|----------5--5--5--5--5--|
D|--2--2--2--2--2--5--5--3--|-3--3--3--5--5--5--5--5--|X2
A|--0--0--0--0--0--5--5--3--|-3--3--3--3--3--3--3--3--|
E|-----------------3--3--1--|-1--1--1-----------------|

Juggling Scissors In The Afternoon

E|---------------|---------------|----------------------|------------------------|
B|---------------|---------------|----------------------|------------------------|
G|7-7-7-7-7-7-7--|-7-7-7-7-7-9-10|-10-10-10-10-10-10-12-|12-12-12-12-12-12-12-12-|
D|7-7-7-7-7-7-7--|-7-7-7-7-7-9-10|10-10-10-10-10-10-12--|12-12-12-12-12-12-12-12-|X1
A|5-5-5-5-5-5-5--|-5-5-5-5-5-7--8|-8--8--8--8--8--8-10--|10-10-10-10-10-10-10-10-|
E|---------------|---------------|----------------------|------------------------|


RIFF 4 [WITH SOLO]

E|-------------------|-------------------|-------------------|------------------|
B|-------------------|-------------------|-------------------|------------------|
G|--14-14-14-14-13---|--12-12-12-12-11---|--10-10-10-10-10---|--7--7--7--7--7---|
D|--14-14-14-14-13---|--12-12-12-12-11---|--10-10-10-10-10---|--7--7--7--7--7---|x4
A|--12-12-12-12-11---|--10-10-10-10-9----|--8--8--8--8--8----|--5--5--5--5--5---|
E|-------------------|-------------------|-------------------|------------------|

SOLO OVER RIFF 4

E|----------|-----------|----------|----------|
B|-10-------|-13--------|-15-------|-17-------|
G|-12b14----|-15b17-----|-17b19----|-19b21----|
D|----------|-----------|----------|----------|
A|----------|-----------|----------|----------|
E|----------|-----------|----------|----------|

I've Got Happy Memories.....

E|--------------------------|-------------------------|
B|--------------------------|-------------------------|
G|--2--2--2--2--2-----------|----------5--5--5--5--5--|
D|--2--2--2--2--2--5--5--3--|-3--3--3--5--5--5--5--5--|X2
A|--0--0--0--0--0--5--5--3--|-3--3--3--3--3--3--3--3--|
E|-----------------3--3--1--|-1--1--1-----------------|

Juggling Scissors In The Afternoon

E|---------------|---------------|----------------------|------------------------|
B|---------------|---------------|----------------------|------------------------|
G|7-7-7-7-7-7-7--|-7-7-7-7-7-9-10|-10-10-10-10-10-10-12-|12-12-12-12-12-12-12-12-|
D|7-7-7-7-7-7-7--|-7-7-7-7-7-9-10|10-10-10-10-10-10-12--|12-12-12-12-12-12-12-12-|X1
A|5-5-5-5-5-5-5--|-5-5-5-5-5-7--8|-8--8--8--8--8--8-10--|10-10-10-10-10-10-10-10-|
E|---------------|---------------|----------------------|------------------------|

I'Ve Got Happy Memories.....

E|--------------------------|-------------------------|
B|--------------------------|-------------------------|
G|--2--2--2--2--2--------7--|-7--7--7-----------------|
D|--2--2--2--2--2--5--5--7--|-7--7--7--3--3--3--3--3--| UNTIL END!!!
A|--0--0--0--0--0--5--5--5--|-5--5--5--3--3--3--3--3--|
E|-----------------3--3-----|----------1--1--1--1--1--|
Comments