Powderfinger - On My Mind Chords & Tabs

 

On My Mind Chords & Tabs

Powderfinger Chords & Tabs

Version: 3 Type: Tab 0 ratings
1 star 2 stars 3 stars 4 stars 5 stars
comments

On My Mind Tab

Tabbed by: Anthony Chmiel (rhcp)guitarist @ Ultimate Guitar)
Email:anthony320chmiel@hotmail.com

Tuning: standard (low-high: eadgbe)
Key:

///// = slide all the way down the neck

(Intro: Slight Overdrive)
e|-------------------------------------------------|
B|-------------------------------------------------|
G|-------------------------------------------------|
D|-8-8-8-8-8/////----------------------------------|
A|-8-8-8-8-8/////--repeat this 4 times-------------|
E|-6-6-6-6-6/////----------------------------------|
[ Tab from: http://www.guitartabs.cc/tabs/p/powderfinger/on_my_mind_tab_ver_3.html ]
Verse: 
e|-------------------------------------------------|
B|-------------------------------------------------|
G|---------------------------8-8-8-8-8-8-----------|
D|-8-8-8-8-8-8--6-6-6-6-6-6--8-8-8-8-8-8-----------| x 4 
A|-8-8-8-8-8-8--6-6-6-6-6-6--6-6-6-6-6-6-----------|
E|-6-6-6-6-6-6--4-4-4-4-4-4------------------------|

Chorus: 
e|-------------------------------------|
B|-------------------------------------|
G|-------------------------------------|
D|--6-8--6-8--6-8--6-8--6-8------------| x 4
A|--6-8--6-8--6-8--6-8--6-8------------|
E|--4-6--4-6--4-6--4-6--4-6------------|

e|--------------------|
B|--------------------|
G|-10---8----6--------|
D|-10---8----6----6---|
A|-8----6----4----6---|
E|----------------4---|

thats basically it, apart from the soloing. just repeat the parts and have fun. enjoi
Comments