Powderfinger - Odyssey Number Five Chords & Tabs

 

Odyssey Number Five Chords & Tabs

Powderfinger Chords & Tabs

Version: 1 Type: Tab 0 ratings
1 star 2 stars 3 stars 4 stars 5 stars
comments

Odyssey Number Five Tab

   
Powderfinger - Odyssey Number Five

Track List

#1 Waiting for the sun
#2 My Happiness
#3 The Metre
#4 Like a Dog
#5 Odyssey #5
#6 Up & Down & Back Again
#7 My Kind of Scene
#8 These Days
#9 We Should Be Together Now
#10 Thrilloilogy
#11 Whatever makes you happy


_____________________________________________________________________
Track 1 - Powderfinger - Waiting for the sun
intro/verse - guitar 1


>e--1----------------(5)---------------0----------------3-----------------|
>b--3-----------------6----------------1----------------3-----------------|
>g--2-----------------5----------------0----------------0-----------------|
>d--0-----------------0----------------2----------------0-----------------|
>a-------------------------------------3----------------x-----------------|
>e------------------------------------------------------3-----------------|

>e---0-0-0-0-0-0-0-0-0-0-0-0-0-0-0-0---0-0-0-0-0-0-0-0---0-0-0-0-0-0-0-0--|
>b--/5-5-5-5-5-5-5-5/7-7-7-7-7-7-7-7-5/7-7-7-7-7-7-7-7-7/8-8-8-8-8-8-8-8--|
>g------------------------------------------------------------------------|
>d------------------------------------------------------------------------|
>a------------------------------------------------------------------------|
>e------------------------------------------------------------------------|

e-----
b--3--
g--2--
d--0--
a-----
e-----

e-----
b-----
g-----
d--2--
a--2--
e--0--


chorus

guitar 1  (chords relative to capo)


     Dm          C/E          F         C            G


>e-----------------------------------------------------------3--|
>b---------3-----------1------------1---------1--------------3--|
>g------2-----------0------------2----------0-0------------0-0--|
>d---0--------0--2--------2---3-----------2--------------0-0----|
>a--------------------------------------3-----------------------|
>e---------------------------------------------------3----------|

guitar 2


     Em          D/F#         G         D            A


e-----------------------------------3---------2----------------|
b---------0------------3------------3------3--3------2---------|
g---------0---------2--2------------0---2--2--2------2---------|
d-------2-2---------0--0--0------0------0-----0------2---------|
a----2--2--------x------------x----------------------0---------|
e----0-----------2--------2---3--------------------------------|

Bridge

guitar 1


   Am   F    C      G


e--0-0--------------3--|
b--1-1--1-1--1-1-1--3--|
g--2-2--2-2--0-0-0--0--|
d--2-2--3-3--2-2-2--0--|
a--0-0--3-3--3-3-3--x--|
e-------------------3--|

guitar 2


e-------3-3------------|
b-------3-3--3-3-3--2--|
g--4-4--0-0--2-2-2--2--|
d--4-4--0-0--0-0-0--2--|
a--2-2--x-x---------0--|
e-------3-3------------|


then


guitar 1 plays verse/intro part


guitar 2


e------------------------------------------------------------|
b----------10--12~------------10--10---10~-------------------|
g---9--12--------------9--12----------------11b(12)r11-------|
d-------------------------------------------------------9~---|
a------------------------------------------------------------|
e------------------------------------------------------------|


e------------------------------------------------------------|
b----------10--12~------------10--10~--10h12~----------------|
g---9--12--------------9--12---------------------------------|
d------------------------------------------------------------|
a------------------------------------------------------------|
e------------------------------------------------------------|

_____________________________________________________________________
Track 2 - Powderfinger - My Happiness

INTRO & VERSE CHORDS: (guitar 1)
    Fmaj7          C         Fmaj7          C
E-|--0---0---0-0-0-0-0---0-0-0-0--0---0-0-0-0-0--|
B-|--1---1---1-1-1-1-1---1-1-1-1--1---1-1-1-1-1--|
G-|--2---2---2-2-0-0-0---0-0-0h2--2---2-2-0-0-0--|
D-|--3---3---3-3-0h2-2---2-2-0h3--3---3-3-0h2-2--|(repeat many times)
A-|--0---0---0-0-0h3-3---3-3-0-0--0---0-0-0h3-3--|
E-|----------------------------------------------|

INTRO LEAD:
E-|-------------------------------|
B-|-------------------------------|
G-|----5--7--9-----5--7--9-----5--|
D-|--7----------7-----------7-----|(x2)
A-|-------------------------------|
E-|-------------------------------|

VERSE LEAD:
E-|-------------------|
B-|-------------------|
G-|----5--7--9-----5--|
D-|--7----------7-----|
A-|-------------------|
E-|-------------------|

PRE CHORUS CHORDS:
     Em  Am  Em  Am  Em  G
E-|--0---0---0---0---0---3--|
B-|--0---1---0---1---0---3--|
G-|--0---2---0---2---0---0--|
D-|--2---2---2---2---2---0--|
A-|--2---0---2---0---2---2--|
E-|--0-------0-------0---3--|

PRE CHORUS LEAD:
E-|----------|-----------|---------|
B-|-10--8----|-10--8--10-|-10--8---|
G-|--------9-|-----------|---------|
D-|----------|-----------|---------|
A-|----------|-----------|---------|
E-|----------|-----------|---------|

1ST CHORUS CHORDS:
    F   C   G   F		    F   C   G
E-|-1---0---3---1-|-        E-|-1---0---3-|------|
B-|-1---1---3---1-|-         B-|-1---1---3-|-----|
G-|-2---0---0---2-|-        G-|-2---0---0-|------|
D-|-3---2---0---3-|-    (x3)    D-|-3---2---0-|--|
A-|-3---3---2---3-|-        A-|-3---3---2-|------|
E-|-1-------3---1-|-        E-|-1-------3-|------|

2ND CHORUS CHORDS:
    F   C   G   F		    F   C   G
E-|-1---0---3---1-|-        E-|-1---0---3-|------|
B-|-1---1---3---1-|-         B-|-1---1---3-|-----|
G-|-2---0---0---2-|-        G-|-2---0---0-|------|
D-|-3---2---0---3-|-    (x7)    D-|-3---2---0-|--|
A-|-3---3---2---3-|-        A-|-3---3---2-|------|
E-|-1-------3---1-|-        E-|-1-------3-|------|

CHORDS F0R LEAD BREAK:
    Fmaj7          C         Fmaj7          C              G
E-|--0---0---0-0-0-0-0---0-0-0-0--0---0-0-0-0-0-|-    E-|-3-|------|
B-|--1---1---1-1-1-1-1---1-1-1-1--1---1-1-1-1-1-|-    B-|-3-|------|
G-|--2---2---2-2-0-0-0---0-0-0h2--2---2-2-0-0-0-|-    G-|-0-|------|
D-|--3---3---3-3-0h2-2---2-2-0h3--3---3-3-0h2-2-|-(x4)    D-|-0-|--|
A-|--0---0---0-0-0h3-3---3-3-0-0--0---0-0-0h3-3-|-    A-|-2-|------|
E-|---------------------------------------------|-    E-|-3-|------|

LEAD BREAK (after 2nd chorus):
E-|------------------------------|-	E-|--------------|
B-|------------------------------|-	B-|-10---10---8--|
G-|----5--7--9-----5--7--9-----5-|-	G-|----9----9----|
D-|--7----------7-----------7----|-	D-|--------------|(x2)
A-|------------------------------|-	A-|--------------|
E-|------------------------------|-	E-|--------------|


_____________________________________________________________________
Track 3 - Powderfinger - The Metre

capo on 2nd fret (notes relative to capo)

verse (palm mute on the down stroke as you strum it)

e  --------------------------------------------------------|
b  ----0--0--0--0--0--0--0--0---0--0--0--0---0--0--0--0----|
g  ----0--0--0--0--0--0--0--0---0--0--0--0---2--2--2--0----|
d  ----2--2--2--2--1--1--1--1---2--2--2--2---2--2--2--0----|
a  ----3--3--3--3--2--2--2--2---2--2--2--2---0--0--0--0----|
E  -----------------------------0--0--0--0-----------------|


e  ----------------------------------------------------------|
b  ----0--0--0--0--0--0--0--0---0--0--0--0---3--3--3--3------|
g  ----0--0--0--0--0--0--0--0---0--0--0--0---0--0--0--0------|
d  ----2--2--2--2--1--1--1--1---2--2--2--2---0--0--0--0------|
a  ----3--3--3--3--2--2--2--2---2--2--2--2---x--x--x--x------|
E  -----------------------------0--0--0--0---3--3--3--3------|


pre chorus

e  -----------------------------|
b  ----1--1--1--0--0--0--8------|
g  ----0--0--0--0--0--0--9------|
d  ----2--0--2--4--5--7--10-----|
a  ----3--3--3--6--7--9--10-----|
E  ----------------------8------|


chorus

e  --3--3--0----3--3--0---0--0--0----3--3--0---3--3--3--0--|
b  --3--3--0----3--3--0---1--1--1----3--3--0---3--3--3--0--|
g  --0--2--0----0--2--0---0--0--0----0--2--0---2--0--2--0--|
d  --0--0--2----0--0--2---2--0--2----0--0--2---0--0--0--2--|
a  --2--x--2----2--x--2---3--3--3----2--x--2---x--2--x--2--|
E  --3--2--0----3--2--0--------------3--2--0---2--3--2--0--|


verse 2

with harmonics

e--<12>----------<7>-------|
b--------<12>---------<7>--|
g--------------------------|
d--------------------------|
a--------------------------|
e--------------------------|


bridge


e-------------------------------------------------|
b-------------------------------------------------|
g-------------------------------------------------|
d-------------------------------------------------|
a-------------------------------------------------|
e---8----7----5--5-3-0---7---5---3-5--5-3-0-------|


second guitar plays dead stokes over that rhythm

if you want to try and mimic the strings you can play this

e------------------------------------------------------------|
b------------------------------------------------------------|
g------------------------------------------------------------|
d---4-4-4-4-4-4-2--------------2-2-2-2-2-2-0-----------------|
a---3-3-3-3-3-3-2--------------2-2-2-2-2-2-0-----------------|
e-----------------3-5-5-5-3-0-----------------3-5-5-3-0------|

_____________________________________________________________________
Track 4 - Powderfinger - Like a Dog

This song is tuned half a step down to
Eb Ab Db Gb Bb Eb

VERSE (0:29) repeat all this 6 times
e----------------------------------------------|
b--------------<12>-<12>-<12>------------------|
G----------------------------------------------|
D--------6------------------------6------------|
A--7-7-7---7-7----------------7-7---7-7-7-6----|
E----------------------------------------------|

e----------------------------------------------|
b----------------------------------------------|
G---------------7-7-7--------------------------|
D--------4----------------4--------------------|
A--5-5-5---5-5--------5-5---5-5-5-6------------|
E----------------------------------------------|

PRE-CHORUS (1:15)
e--12~~~~~~---10~~~~~~~~---10-----12-~~~~~~~--12b14--12b14b12--10~~~-|
b------------------------------12------------------------------------|
G--------------------------------------------------------------------|
D--------------------------------------------------------------------|
A--------------------------------------------------------------------|
E--------------------------------------------------------------------|

CHORUS (1:31)
e----------------------------------|
b----------------------------------|
G----------------------------------|
D--------------------5--5-6-7------|8 times
A-----------5--6--7----------------|
E--5---5-8-------------------------|

"But its a fine, fine..."
e----------------------------------------------|
b----------------------------------------------|
G----------------------------------------------|
D--4-4-4-4-4-4-4-4--7-7-7-7-7-7-7-7------------|
A--4-4-4-4-4-4-4-4--7-7-7-7-7-7-7-7------------|
E--2-2-2-2-2-2-2-2--5-5-5-5-5-5-5-5------------|


_____________________________________________________________________
Track 5 - Powderfinger - Odyssey #5

GUITAR 1 (0:00)
repeat this until the change
e--8-8-9-10-----------------------|
b-----------8-8-8-8-8-------------|
G---------------------------------|
D---------------------------------|
A---------------------------------|
E---------------------------------|

GUITAR 2 (0:14)
repeat this for the rest of the song
e------2-------2-------2-------2------|
b--3-3---3---3---3---3---3---3---3----|
G----------5-------4-------0----------|
D-------------------------------------|
A-------------------------------------|

THE CHANGE
GUITAR 1
e---------8~----------8~----------|
b--7--7---------7-----------------|
G---------------------------------|
D---------------------------------|
A---------------------------------|
E---------------------------------|


_____________________________________________________________________
Track 6 - Powderfinger - Up & Down & Back Again

come and rescue me...


e---0------------------|
b---0------------------|
g---0------------------|
d---2------------------|
a---2------------------|
e---0------------------|

i haven't found it yet


e---0--------------------|
b---1-(5)------------4---|
g---0-(5)------------4---|
d---2-(5)------------4---|
a---3-(3)------------2---|
e------------------------|

you drift away so slow...


e---0------------------|
b---0------------------|
g---0------------------|
d---2------------------|
a---2------------------|
e---0------------------|

  ..was bittersweet         it feels the same..


e-------------              e---0---------------------|
b-------------              b---1-----4----1----4-----|
g-/4-2-0------              g---0-----4----0----4-----|
d--------4-2--              d---2-----4----2----4-----|
a-------------              a---3-----2----3----2-----|
e-------------              e-------------------------|
2nd guitar

prechorus


all the hidden pleasures...


    Gm   D    D#  A#  F   D#


e---0---------0-------3---0--|
b---0----4----1---3---3---1--|
g---0----4----0---0---2---0--|
d---2----4----2---0---0---2--|
a---2----2----3---x-------3--|
e---0-------------3----------|


you can play them as all barr chords (D#, A#) as well, it doesn't make much difference


2nd guitar pluck notes like..


e--------------------------------------------------------------|
b--------0---------4---------5---------3-----------7--------5--|
g--------0---------4---------5--5------4-----------7--------5--|
d-----2--2-------4---------5----5------5---------7--------5----|
a--2--2-----2--2------2--3-----------5-----5---5-----5--3------|
e--0--------0----------------------3-------3-------------------|


chorus


i can barely see...


e---0-------0---2------|
b---0---3---1---3------|
g---0---0---0---2------|
d---2---0---2---0------|
a---2---x---3----------|
e---0---3--------------|

verse 2
pre chorus 2
chorus 2

bridge (key change)


everybody knows just who you are


e---2---0---2---0---------|
b---2---2---3---0---------|
g---2---2---2---1---------|
d---4---2---0---2---------|
a---4---0-------2---------|
e---2-----------0---------|

final chorus - embellished guitar part


e----------0-----------------------------0-------3---0--------|
b----------0------------------1----------1---------------3p0--|
g----------0--------------0---0--0-------0-----2--------------|
d----------2-2---------0--0---2----0h2-2-2---0-----0---0------|
a--------2-2-2--x--0h2----2---3--------3----------------------|
e------0---0-0--3---------3-----------------------------------|


_____________________________________________________________________
Track 7 - Powderfinger - My Kind of Scene

INTRO
GUITAR 1
just play this note for the first 20 seconds
e---------------------------------|
b---------------------------------|
G---------------------------------|
D---------------------------------|
A---3--3--3--3-3--3--3-3-3-3------|
E---------------------------------|

at (0:21)
e--------------------------------------------------------------|
b--------------------------------------------------------------|
G--------------------------------------------------------------|
D--------------------------------------------------------------|
A--0--0--0--0-0--0--0------------------------------------------|
E----------------------3--3--3--3-3--3--3--1--1--1--1-1--1--1--|

GUITAR 2 comes in at the end at (0:45)
e-----------------------------------------|
b--------1----------0----------1--------1-|
G----2----------0----------2------2---2---|
D------2----------0------3---3------3-----|
A--0--------------------------------------|
E-------------3---------------------------|

CHORUS
GUITAR 1

e|-0-|-0-|-1-|-0--3-|--|
b|-1-|-0-|-1-|-1--3-|--|
G|-0-|-1-|-2-|-2--0-|--|
D|-2-|-2-|-3-|-2--0-|--|  x2
A|-3-|-2-|-3-|-0--2-|--|
E|---|-0-|-1-|----3-|--|

GUITAR 2
e-------------------------------------------------------|
b------5-----------5-----------6---------1--------0-----|
G----5---5-------4---4-------5---5-------2--------0-----|
D--5-----------2-----------3-----------2---2----0---0---| X2
A------------------------------------0------------------|
E---------------------------------------------3---------|

AFTER CHORUS (1:21)
GUITAR 1 keeps playing that C note like the start

GUITAR 2
e-----------------------------------7--|
b----------8--------8-------8----------|
G-----9--------9-------9-------9-------|
D--10---10-------10------10------10----|
A--------------------------------------|
E--------------------------------------|

VERSE 2 (1:33)

GUITAR 1
same as first but plays the end bit twice

GUITAR 2
e----------------------------------------|
b----------8--------8-------8------------|
G-----9--------9-------9-------9----9----|
D--10---10-------10------10------10------| x2
A----------------------------------------|
E----------------------------------------|

e-----------------------------------7--|
b----------8--------8-------8----------|
G-----9--------9-------9-------9-------|
D--10---10-------10------10------10----|
A--------------------------------------|
E--------------------------------------|

GUITAR 2 END VERSE (1:45)
e-----------------------------------------|
b--------1----------0----------1--------1-|
G----2----------0----------2------2---2---|
D------2----------0------3---3------3-----| X2
A--0--------------------------------------|
E-------------3---------------------------|

REPEAT CHORUS (2:33)

QUIET PIANO BIT (2:57)
e-------------------------------------------------|
b--5-5---5-3-5-5--5-3-5-5--5-3-5-5--5-5-----------|
G--5-5---5-5-5-5--5-5-5-5--5-5-5-5--5-5-----------|
D-------------------------------------------------|
A-------------------------------------------------|
E-------------------------------------------------|

SOLO (3:09)
e---------------------------------------------------------|
b---------------------------------------------------------|
G---------------------------------------------------------|
D---------------------------------------------------------|
A--3-5-3-5/7---5P3-5--3-5-3-5/7--7-7-7-7-7-7--------------|
E---------------------------------------------------------|
[ Tab from: http://www.guitartabs.cc/tabs/p/powderfinger/odyssey_number_five_tab.html ]
AT (3:21)
GUITAR 1 PLAYS
e-------------------------------------------------------|
b---------------------------------5---------------------|
G---------------------------------7b9--9b7----5h7-------|
D--7~~-5~~~-5~~~--7~~~-9~~~-7~~~------------7-----------|
A-------------------------------------------------------|
E-------------------------------------------------------|

GUITAR 2 is the high rapid notes you can hear which is probably caused
by a pedal so you'll have to pick really fast if you dont have the
right
pedal. Pick each note in the bar fast

e|-12-|-10-|-8-10-8-|-10/12-|----------|
b|----|----|--------|-------|----------|
G|----|----|--------|-------|----------|
D|----|----|--------|-------|----------|
A|----|----|--------|-------|----------|
E|----|----|--------|-------|----------|

e|-12-|-10-|-10-|-8-10-|----------|
b|----|----|----|------|----------|
G|----|----|----|------|----------|
D|----|----|----|------|----------|
A|----|----|----|------|----------|
E|----|----|----|------|----------|

(3:45)
e|---|---|---|------|----|
b|---|---|---|------|----|
G|-5-|-4-|-5-|-5--7-|----|   x2
D|---|---|---|------|----|
A|---|---|---|------|----|
E|---|---|---|------|----|

(4:10)
e|-12-|-10-|-12-|-----|
b|----|----|----|-----|
G|----|----|----|-----|
D|----|----|----|-----|
A|----|----|----|-----|
E|----|----|----|-----|

_____________________________________________________________________
Track 8 - Powderfinger - These Days

INTRO
On the album its just atmospheric stuff probably done on keyboard but
on the single the bass plays this however many times

e------------------------------------|
b------------------------------------|
G------------------------------------|
D-----7------4------2----0-----------|
A------------------------------------|
E--5------2------0-------------------|

VERSE (1:01)

GUITAR 1
e|-0-|-2-|-0-|-2-|--|
b|-2-|-2-|-0-|-3-|--|
G|-2-|-2-|-1-|-2-|--|
D|-2-|-4-|-2-|-0-|--| X1
A|-0-|-4-|-2-|-0-|--|
E|---|-2-|-0-|---|--|

END VERSE
GUITAR 1
e--2-2-2-2----|
b--3-3-3-3----|
G--2-2-2-2----|
D--0-0-0-0----|
A--0-0-0-0----|
E-------------|

GUITAR 2 (1:10)
e-------2--------1---------------------|
b-------3--------3---------------------|
G-----2--------2---2-------------------|
D---0-----0--3-------------------------|
A--------------------------------------|
E--------------------------------------|

CHORUS (1:13)
GUITAR 1
e|-0-|-0-|-2-|-2-|-0-|-0-|
b|-2-|-0-|-2-|-3-|-0-|-0-|
G|-2-|-1-|-2-|-2-|-1-|-1-|
D|-2-|-2-|-4-|-0-|-2-|-2-| x2
A|-0-|-2-|-4-|---|-2-|-2-|
E|---|-0-|-2-|---|-0-|-0-|

GUITAR 2
Just picking the chords basically
e--------------------------------------------------------|
b------2-------0-------2--------3-------5-------5--------|
G------2-------1-------2------2---2---4---4---4---4------|
D----2---2---2---2---4---4--0-------2-------2------------|   x2
A--0-----------------------------------------------------|
E----------0-------2-------------------------------------|

VERSE and END VERSE again

CHORUS again

SOLO (2:53)

GUITAR 1
e|-2-|-2-|-0-|-0-|--|
b|-3-|-3-|-2-|-0-|--|
G|-4-|-2-|-2-|-1-|--|
D|-4-|-0-|-2-|-2-|--| X4
A|-2-|---|-0-|-2-|--|
E|---|---|---|-0-|--|

THEN
e--2--2-2-2--2---2--1--1-1-1-1--1---------------|
b--3--3-3-3--3---3--3--3-3-3-3--3---------------|
G--2--2-2-2--2---2--2--2-2-2-2--2---------------|
D--0--0-0-0--0---0--3--3-3-3-3--3---------------|
A-----------------------------------------------|
E-----------------------------------------------|

GUITAR 2
e------------------------------------|
b--5---3--2--3--2~--2~--2--0---------|
G------------------------------------|
D------------------------------------|
A------------------------------------|
E------------------------------------|

e------------------------------------|
b--5---3--2--3--2~--2~--2--2---------|
G------------------------------------|
D------------------------------------|
A------------------------------------|
E------------------------------------|

e------5----------7/9--7---5---5---5---------|
b--5-7---------------------------------------|
G--------------------------------------------|
D--------------------------------------------|
A--------------------------------------------|
E--------------------------------------------|

e---------5-----------7/9--7---5---5---5-----|
b-5-5-5-7------------------------------------|
G--------------------------------------------|
D--------------------------------------------|
A--------------------------------------------|
E--------------------------------------------|

e-----------------------------------------|
b--5---3--2--3--2---3---2--3--5--3--2-----|
G-----------------------------------------|
D-----------------------------------------|
A-----------------------------------------|
E-----------------------------------------|

QUIET AGAIN

CHORUS (3:45)

GUITAR 1 SAME 8 TIMES

GUITAR 2
e--/17----|
b---------|
G---------|
D---------|
A---------|
E---------|

then play this 8 times
e-----------------------------------------|
b-----------------------------------------|
G--10-------9-------10-----7------9-------|
D-----------------------------------------|    X8
A-----------------------------------------|
E-----------------------------------------|


_____________________________________________________________________
Track 9 - Powderfinger - We Should Be Together Now

VERSE (PIANO) (0:20)
e--------------------------18---16---14--|
b----------------------------------------|
G----------------------------------------|
D---8---6----4---------------------------|
A---8---6----4---------------------------|
E---6---4----2---------------------------|

CHORUS (0:31)
GUITAR 1
e-------------------------------------------------------|
b-------------------------------------------------------|
G--10-10--10--10--6-6--6--6-----------------------------|
D--8--8---8---8---6-6--6--6--4-4--4--4--4-4--4--4-------|  X5
A--8--8---8---8---4-4--4--4--4-4--4--4--4-4--4--4-------|
E--6--6---6---6--------------2-2--2--2--2-2--2--2-------|

After that play this for 3 bars and let it ring out for the fourth
e|---|---|---|---|------------------------------------|
b|---|---|---|---|------------------------------------|
G|-8-|-8-|-8-|---|------------------------------------|
D|-8-|-8-|-8-|---|------------------------------------|
A|-6-|-6-|-6-|---|------------------------------------|
E|-6-|-6-|-6-|---|------------------------------------|

GUITAR 2 (0:46)
e-----------------------------------------------------|
b--6-----6-----6-----6-----6-----6-----6-----6--------|
G--8b10--8b10--8b10--8b10--8b10--8b10--8b10--8b10-----|
D-----------------------------------------------------|
A-----------------------------------------------------|
E-----------------------------------------------------|

e------------------------------------------------------|
b--9~~~----9~~~----9~~~----9~~~----9/11----------------|
G----8b10----8b10----8b10----8b10-------8~~~~~~~~~~~~--|
D------------------------------------------------------|
A------------------------------------------------------|
E------------------------------------------------------|

VERSE 2 (1:07)
BASS plays
e--------------------------------------|
b--------------------------------------|
G---------------6----------------------|
D----8---8---------6b8-----------------|
A--------------------------------------|
E--6-------6--6------------------------|

GUITAR 1 (1:38)
e-------------------------------------------|
b-------------------------------------------|
G-------------------------------------------|
D---8---6----4-------8---6---6--------------|
A---8---6----4-------8---6---4--------------|
E---6---4----2-------6---4---2--------------|

CHORUS AGAIN
GUITAR 1 starts at (1:48)
GUITAR 2 at (2:04)

SOLO (2:04)

GUITAR 1 keeps playing chorus

GUITAR 2
play all this twice
e------------------------------------------------------------|
b------------------------------------------------------------|
G----------6---------6---------6------------8b9--8b9b8-6-----|
D------6h8-------6h8-------6h8---8p6-8-------------------8---|
A--6h8-------6h8-------6h8-----------------------------------|
E------------------------------------------------------------|

e----------------------------------------------------------|
b----------------------------------------------------------|
G----------6---------6---------6---------------------------|
D------6h8-------6h8-------6h8---8p6-8-----6h8-------------|
A--6h8-------6h8-------6h8---------------------------------|
E----------------------------------------------------------|

CHORUS AGAIN

SOLO AGAIN until the end

_____________________________________________________________________
Track 10 - Powderfinger - Thrilloilogy

intro guitar - with what sounds like a leslie/fast chorus effect. Sounds a bit lame without it


e-------------------------------------------0--0--0--|
b--5\-----------5\------------3\------------1--1--0--|
g------2--0--2------2--0--2-------2--0--2------------|
d----------------------------------------------------|
a----------------------------------------------------|
e----------------------------------------------------|

main verse chords


e---0---0---0---0---0-----|
b---0---0---1---1---0-----|
g---2---0---2---0---0-----|
d---2---2---3---2---0-----|
a---0---0---0---3---2-----|
e-------------------------|

pre chorus
                x2
e---0---0---3---|--------|
b---1---1---3---|---1----|
g---2---0---0---|---2----|
d---3---2---0---|---3----|
a---3---3---x---|---3----|
e-----------3---|--------|

chorus


e---0---0---0-------|
b---1---0---1-------|
g---0---1---2-------|
d---2---2---3-------|
a---3---2---3-------|
e-------0-----------|

interlude w/ delay?
build up


e-------------------------------------------------------------|
b--------------------------------------------4--4--3-3--1-1---|
g---2-2-2-2-2-2---------------2-2-2-2-2-2-2-------------------|
d---2-2-2-2-2-2--0-0-0-0-0-0--2-2-2-2-2-2-2-------------------|
a---0-0-0-0-0-0--2-2-2-2-2-2--0-0-0-0-0-0-0-------------------|
e-------------------------------------------------------------| repeat

e--------------------------------------------2-2-2-2-2-2-2------|
b--------------------------------------------3-3-3-3-3-3-3------|
g---2-2-2-2-2-2---------------0-0-0-0-0-0-0--2-2-2-2-2-2-2------|
d---2-2-2-2-2-2--0-0-0-0-0-0--2-2-2-2-2-2-2--0-0-0-0-0-0-0------|
a---0-0-0-0-0-0--2-2-2-2-2-2--3-3-3-3-3-3-3---------------------|
e---------------------------------------------------------------|repeat

rhodes plays guitar riff for a bit


outro you can take the capo off and play C, D, Em open chords

This is pretty much all the main guitar parts


________________________________________________________________________________


Thrilloilogy
Tabbed by Ben harper

Any comments or suggestions to Wahooti_custaro@yahoo.com

KEY

7h9             - hammer
7p9             - pull off
11b12           - 11 bend to 12
11b12b11        - 11 bend to 12 and back to 11
/               - slide up
\               - slide down
<12>            - harmonic
|---|           - a bar
 ~              - vibrato
 X              - block

VERSE
GUITAR 1 (0:00)
e--7----------7----------5---------3--3-2----|
b----5--3-5-----5--3-5-----5--3-5------------|
G--------------------------------------------|
D--------------------------------------------|  X5
A--------------------------------------------|
E--------------------------------------------|

GUITAR 2 (0:09)
e|-0-|-0-|-0-|-3--X-|-------|
b|-0-|-0-|-0-|-3--3-|-------|
G|-X-|-X-|-X-|-0--2-|-------|
D|-2-|-2-|-2-|-0--0-|-------|   X4
A|-2-|-2-|-2-|-X--X-|-------|
E|-0-|-0-|-0-|-3--2-|-------|

PRE CHORUS (0:47)
GUITAR 1
e|-8-|-8-|-7-|-10-|----|
b|-5-|-5-|-8-|-7--|----|
G|---|---|---|----|----|
D|---|---|---|----|----| X2
A|---|---|---|----|----|
E|---|---|---|----|----|

then
e----------------------------------|
b--5-5-5-5-5-5-5-5-5-5-------------|
G--5-5-5-5-5-5-5-5-5-5-------------|
D--5-5-5-5-5-5-5-5-5-5-------------|
A--3-3-3-3-3-3-3-3-3-3-------------|
E----------------------------------|

GUITAR 2
e|---|---|-3-|---|---|
b|-5-|-5-|-3-|-3-|---|
G|-5-|-5-|-0-|-2-|---|
D|-5-|-5-|-0-|-0-|---|  X2
A|-3-|-3-|-X-|-X-|---|
E|---|---|-3-|-2-|---|

then
e----------------------------------|
b--5-5-5-5-5-5-5-5-5-5-------------|
G--5-5-5-5-5-5-5-5-5-5-------------|
D--5-5-5-5-5-5-5-5-5-5-------------|
A--3-3-3-3-3-3-3-3-3-3-------------|
E----------------------------------|

CHORUS (1:02)
GUITAR 1
repeat all this twice
e-------7---------7---------7---------7---------7---------7---|
b--8--8---8--8--8---8--7--7---7--7--7---7--8--8---8--8--8---8-|
G--7--7------7--7------4--4------4--4------5--5------5--5-----|
D--5--5------5--5------4--4------4--4------5--5------5--5-----|
A-------------------------------------------------------------|
E-------------------------------------------------------------|

GUITAR 2
e|-3-|---|---|---|---|
b|-3-|-4-|-5-|-5-|---|
G|-0-|-4-|-5-|-5-|---|
D|-0-|-4-|-5-|-5-|---|  X2
A|-2-|-2-|-3-|-3-|---|
E|-3-|---|---|---|---|

VERSE AGAIN, EACH GUITAR 4 TIMES

PRE-CHORUS

CHORUS
GUITAR 1 is the same

GUITAR 2
e|-3-|---|---|---|---|
b|-3-|-4-|-5-|-5-|---|
G|-0-|-4-|-5-|-5-|---|
D|-0-|-4-|-5-|-5-|---|  X2
A|-2-|-2-|-3-|-3-|---|
E|-3-|---|---|---|---|

then (2:52)
e--7--
b--8--
G--5--
D--5--
A-----
E-----

WEIRD INSTRUMENTAL BIT (3:02)
GUITAR 1
e-------------------------------------------------|
b-------------------------11--11--10--10--10--10--|
G--9--9-----9--9----9--9--------------------------|
D--5--5-----7--7----9--9--------------------------|  X2
A--7--7-----9--9----7--7--------------------------|
E-------------------------------------------------|

e----------------------------------------------------|
b----------------------------------------------------|
G--9-9-9-9--9-9-9-9--9-9-9-9--9-9--9-9---------------|
D--5-5-5-5--7-7-7-7--9-9-9-9--9-9--9-9---------------|
A--7-7-7-7--9-9-9-9--7-7-7-7--7-7--7-7---------------|
E----------------------------------------------------|

e--------------------------------------|
b------------------------------10-10---|
G--9--9---9--9---9--9---9--9---9--9----|
D--5--5---7--7---9--9---9--9---9--9----|  X3
A--7--7---9--9---7--7---7--7---7--7----|
E--------------------------------------|

GUITAR 2 (3:23)
e-------------------------------------------------------|
b-------------------------------------------------------|
G-------------------------------------------------------|
D-------------------------------------------------------|
A--7-7--7-7-7--7-7--7-7-7--9-9--9-9-9--9-9--9-9-9-------|
E--0-0--0-0-0--0-0--0-0-0--0-0--0-0-0--0-0--0-0-0-------|

e----------------------------------------------------------------------|
b----------------------------------------------------------------------|
G----------------------------------------------------------------------|
D----------------------------------------------------------------------|
A--10-10--10-10-10--10-10--10-10-10--12-12--12-12-12--12-12--12-12-12--|
e--0--0---0--0--0---0--0---0--0--0---0--0---0--0--0---0--0---0--0--0---|

do this part 3 times
e----------------------------------------------------------------------|
b---------------------------------------------------------------14-14--|
G---------------------------------------------14-14-14-14-14-14-14-14--|
D---------------------------------------------14-14-14-14-14-14-14-14--|
A-7-7-X-X-X-9-9-X-X-X-10-10-X-X-X-10-10-X-X-X-12-12-12-12-12-12-12-12--|
E-0-0-X-X-X-0-0-X-X-X-0--0--X-X-X-0--0--X-X-X-0--0--0--0--0--0--0--0---|

QUIET BIT

GUITAR 1 is the same but on keyboard

GUITAR 2
has a bend in each bar (you'll hear it)
e------------------------------------|
b---8b10b8---------------------------|
G------------------------------------|
D------------------------------------|
A------------------------------------|
E------------------------------------|

at (5:25) guitar 2 goes
e-----------------------------------------------------------------|
b-8-8-8-8-8-8-8-8-10-10-10-10-10-10-10-10-12-12-12-12-12-12-12-12-|
G-----------------9--9--9--9--9--9--9--9--11-11-11-11-11-11-11-11-|
D-----------------------------------------------------------------|
A-----------------------------------------------------------------|
E-----------------------------------------------------------------|

then play this 4 times
e-------------------------------------------------------|
b-12-12-12-12--10-10-10-10--8--8--8--8---8-8-8-8--------|
G-11-11-11-11--11-11-11-11--11-11-11-11--9-9-9-9--------|
D-------------------------------------------------------|
A-------------------------------------------------------|
E-------------------------------------------------------|

_____________________________________________________________________
Track 11 - Powderfinger - Whatever makes you happy

 F  C  Em G  A7 D  Am D/F#sus Fmaj7 Fmaj7-RIFF
e|-1--0--0--3--0--2--0----------0------0----|
B|-1--1--0--0--2--3--1--3-------1------1----|
G|-2--0--0--0--0--2--2--2-------2------3----|
D|-3--2--2--0--2--0--2--0-------3------3----|
A|-3--3--2--2--0--0--0--x-------0------0----|
E|-1--0--0--3--0--------2-------------------|


NOTE: When playing the Fmaj7, Bern sometimes adds
an A# note as shown above in the Fmaj7-RIFF chord.

INTRO (x2)
F  C  Em  G
C  A7 D

VERSE
      F      C       Em           G
if we never make it back to how far
          C     A7     D
we've come along this way
         F            C    Em
we search around for solid ground
          G       C     A7   D
that will help to carry us away
       F      C   Em            G
if the memories I left throw the light
         C     A7        D
that helps to guide you through
           F       C       Em
we trickle down to our goodbyes
          G     C       A7         D
but a part of me will stay with you

PRE CHORUS
G               Am   F        C
  what we've spoken over time
G         Am         C
  never broken or compromised

CHORUS (x2)
G     D/F#sus  Fmaj7  C
dream on together
G         D/F#sus   Fmaj7  C
leaning against each other
G   D/F#sus   Fmaj7  C
however it happens I hope it's
G         D/F#sus Fmaj7  C
whatever makes you happy

FINISH ON G
Comments