Powderfinger - My Happiness Chords & Tabs

 

My Happiness Chords & Tabs

Powderfinger Chords & Tabs

Version: 1 Type: Tab 0 ratings
1 star 2 stars 3 stars 4 stars 5 stars
comments

My Happiness Tab

   
My Happiness by Powderfinger





INTRO & VERSE CHORDS: (guitar 1)
    Fmaj7          C         Fmaj7          C
E-|--0---0---0-0-0-0-0---0-0-0-0--0---0-0-0-0-0-|-
B-|--1---1---1-1-1-1-1---1-1-1-1--1---1-1-1-1-1-|-
G-|--2---2---2-2-0-0-0---0-0-0h2--2---2-2-0-0-0-|-
D-|--3---3---3-3-0h2-2---2-2-0h3--3---3-3-0h2-2-|-(repeat many times)
A-|--0---0---0-0-0h3-3---3-3-0-0--0---0-0-0h3-3-|-
E-|---------------------------------------------|-

INTRO LEAD:
E-|------------------------------|-
B-|------------------------------|-
G-|----5--7--9-----5--7--9-----5-|-
D-|--7----------7-----------7----|-(x2)
A-|------------------------------|-
E-|------------------------------|-

VERSE LEAD:
E-|------------------|-
B-|------------------|-
G-|----5--7--9-----5-|-
D-|--7----------7----|-
A-|------------------|-
E-|------------------|-

PRE CHORUS CHORDS:
     Em  Am  Em  Am  Em  G
E-|--0---0---0---0---0---3-|-
B-|--0---1---0---1---0---3-|-
G-|--0---2---0---2---0---0-|-
D-|--2---2---2---2---2---0-|-
A-|--2---0---2---0---2---2-|-
E-|--0-------0-------0---3-|-

PRE CHORUS LEAD:
E-|----------|-----------|--------|-
B-|-10--8----|-10--8--10-|-10--8--|-
G-|--------9-|-----------|--------|-
D-|----------|-----------|--------|-
A-|----------|-----------|--------|-
E-|----------|-----------|--------|-
[ Tab from: http://www.guitartabs.cc/tabs/p/powderfinger/my_happiness_tab.html ]
1ST CHORUS CHORDS:
    F   C   G   F		    F   C   G
E-|-1---0---3---1-|-		E-|-1---0---3-|-
B-|-1---1---3---1-|-	 	B-|-1---1---3-|-
G-|-2---0---0---2-|-		G-|-2---0---0-|-
D-|-3---2---0---3-|-	(x3)	D-|-3---2---0-|-
A-|-3---3---2---3-|-		A-|-3---3---2-|-
E-|-1-------3---1-|-		E-|-1-------3-|-

2ND CHORUS CHORDS:
    F   C   G   F		    F   C   G
E-|-1---0---3---1-|-		E-|-1---0---3-|-
B-|-1---1---3---1-|-	 	B-|-1---1---3-|-
G-|-2---0---0---2-|-		G-|-2---0---0-|-
D-|-3---2---0---3-|-	(x7)	D-|-3---2---0-|-
A-|-3---3---2---3-|-		A-|-3---3---2-|-
E-|-1-------3---1-|-		E-|-1-------3-|-

CHORDS F0R LEAD BREAK:
    Fmaj7          C         Fmaj7          C              G
E-|--0---0---0-0-0-0-0---0-0-0-0--0---0-0-0-0-0-|-	E-|-3-|-
B-|--1---1---1-1-1-1-1---1-1-1-1--1---1-1-1-1-1-|-	B-|-3-|-
G-|--2---2---2-2-0-0-0---0-0-0h2--2---2-2-0-0-0-|-	G-|-0-|-
D-|--3---3---3-3-0h2-2---2-2-0h3--3---3-3-0h2-2-|-(x4)	D-|-0-|-
A-|--0---0---0-0-0h3-3---3-3-0-0--0---0-0-0h3-3-|-	A-|-2-|-
E-|---------------------------------------------|-	E-|-3-|-

LEAD BREAK (after 2nd chorus):
E-|------------------------------|-	E-|-------------|-
B-|------------------------------|-	B-|-10---10---8-|-
G-|----5--7--9-----5--7--9-----5-|-	G-|----9----9---|-
D-|--7----------7-----------7----|-	D-|-------------|-(x2)
A-|------------------------------|-	A-|-------------|-
E-|------------------------------|-	E-|-------------|-
Comments