Powderfinger - Internationalist Chords & Tabs

 

Internationalist Chords & Tabs

Powderfinger Chords & Tabs

Version: 1 Type: Tab 0 ratings
1 star 2 stars 3 stars 4 stars 5 stars
comments

Internationalist Tab

   
Powderfinger - Internationalist

Track List

#1 Hindley Street
#2 Belter
#3 The Day You Come
#4 Already Gone
#5 Passenger
#6 Don't wanna be left out
#7 Good-Day Ray
#8 Trading Places
#9 Private Man
#10 Celebrity Head
#11 Over My Head
#12 Capoicity
#13 Lemon Sunrise

_____________________________________________________________________
Track 1 - Powderfinger - Hindley Street

INTRO:
E-|----------------------------------------------|
B-|---------------5-------5------5-------5----5--|
G-|-----0h5---5----5---------5---5---------5--5--|
D-|-----0h5---5------5-----------5----5-------5--|
A-|-0h3------------------------------------------|
E-|----------------------------------------------|

E-|----------------------------------|
B-|----------------------3-----------|
G-|-----0--------0-------3--------2--|
D-|---2-2---5--5-5---3-3-3---3--3-3--|(x 2)
A-|-3-------6--6-6---1-------3--3-3--|
E-|--------------------------1--1-1--|

VERSE CHORDS:
E-|-----------------------------|
B-|-1-1-1--3-3-3--3-3-3--1-1-1--|
G-|-0-0-0--0-0-0--3-3-3--2-2-2--|
D-|-2-2-2--5-5-5--3-3-3--3-3-3--|
A-|-3-3-3--6-6-6--1-1-1--3-3-3--|
E-|----------------------1-1-1--|

PRE CHORUS:
E-|-0-|-4-|-0-|-4-|--------------------------|-------------------------|
B-|-1-|-4-|-1-|-4-|---3--3--3-3--3-3--3--3-3-|-3--3--3-3--3-3--3--3-3--|
G-|-0-|-5-|-0-|-5-|---4--4--4-4--4-4--4--4-4-|-4--4--4-4--4-4--4--4-4--|
D-|-2-|-6-|-2-|-6-|---5--5--5-5--5-5--5--5-5-|-5--5--5-5--5-5--5--5-5--|
A-|-3-|-6-|-3-|-6-|---5--5--5-5--5-5--5--5-5-|-5--5--5-5--5-5--5--5-5--|
E-|---|-4-|---|-4-|---3--3--3-3--3-3--3--3-3-|-3--3--3-3--3-3--3--3-3--|

CHORUS CHORDS:
E-|--0-0-0--0-0-0----------------|
B-|--1-1-1--1-1-1--3-3-3--1-1-1--|
G-|--0-0-0--0-0-0--3-3-3--2-2-2--|
D-|--2-2-2--2-2-2--3-3-3--3-3-3--|
A-|--3-3-3--3-3-3--1-1-1--3-3-3--|
E-|-----------------------1-1-1--|

SOLO:
E-|--------------------------------------------------------------------------|
B-|--------------------------------------------------------------------------|
G-|--------------------------------------------------------------------------|
D-|--3h5-5-5-----------------------------------------------------------------|
A-|--3---3-3--3--3--3h5-5-5-6-5--5p3-3-3p1-1-1h3-3-3-5h3-5/6\5---6-5-6/8-8~--|
E-|--------------------------------------------------------------------------|

E-|-------------------------------------------10~-10-------------8-8-8----8-8--|
B-|--------------------------------------8~-8h10~-10------/10-10\8-8-8/10~8-8--|
G-|--------------------------------8~----8~-8h10~-10-10p8-/10-10\8-8-8/10~8-8--|
D-|-------8~----8h10~----8~-8-8h10----10---------------------------------------|
A-|-88h10----10-------10-------------------------------------------------------|
E-|----------------------------------------------------------------------------|

OUTRO CHORDS:
E-|--0-0-0--0-0-0----------------|
B-|--1-1-1--1-1-1--3-3-3--1-1-1--|
G-|--0-0-0--0-0-0--3-3-3--2-2-2--|
D-|--2-2-2--2-2-2--3-3-3--3-3-3--|
A-|--3-3-3--3-3-3--1-1-1--3-3-3--|
E-|-----------------------1-1-1--|

OUTRO RIFF
E-|-18~\----12h13p12--12h13p12----------------|
B-|----------------------------13~--11~--13~--|
G-|-------------------------------------------|
D-|-------------------------------------------|
A-|-------------------------------------------|
E-|-------------------------------------------|


_____________________________________________________________________
Track 2 - Powderfinger - Belter

INTRO: (Guitar 1)
E-|--------------------------------|
B-|--------------------------------|
G-|-13-13---12-12---11-11----------|
D-|-------------------------11-11--|
A-|--------------------------------|
E-|--------------------------------|

VERSE - MAIN RIFF:
Guitar 1
E-|--------------------------------------------|
B-|--------------------------------------------|
G-|-8/9--8/9--8/9-8/9--8/9--8/9--8/9--8/9-8/9--|
D-|--------------------------------------------|
A-|-6/7--6/7--6/7-6/7--6/7--6/7--6/7--6/7-6/7--|
E-|-0----0----0---0----0----0----0----0---0----|

Guitar 2
E-|--------------------------------------------|
B-|--------------------------------------------|
G-|-8/9--8/9--8/9-8/9--8/9--8/9--8/9--8/9-8/9--|
D-|-8/9--8/9--8/9-8/9--8/9--8/9--8/9--8/9-8/9--|
A-|-6/7--6/7--6/7-6/7--6/7--6/7--6/7--6/7-6/7--|
E-|-0----0----0---0----0----0----0----0---0----|

1ST VERSE LEAD RIFF:			2ND VERSE LEAD RIFF
E-|-12-----------------|-		-|-14------------------------|
B-|----14-15--10-11b12-|-		-|----15-14-15-17---12-12b~--|
G-|--------------------|-		-|---------------------------|
D-|--------------------|-		-|---------------------------|
A-|--------------------|-		-|---------------------------|
E-|--------------------|-		-|---------------------------|

PRE CHORUS:
E-|-----------------|------------------|
B-|-----------------|------------------|
G-|-6-6-6-6-6-6-6-6-|-7-7-7-7-7-7-7-7--|
D-|-6-6-6-6-6-6-6-6-|-7-7-7-7-7-7-7-7--|
A-|-4-4-4-4-4-4-4-4-|-5-5-5-5-5-5-5-5--|
E-|-----------------|------------------|

CHORUS:

E-|-------0---0-0-0-------0--0--0---0-0-0------|
B-|-2--2--2h3-3-3-3p2p0---2--2--2h3-3-3-3p2p0--|
G-|-3--3------------------2--2-----------------|
D-|-4--4------------------2--2-----------------|
A-|-4--4------------------0--0-----------------|
E-|-2--2---------------------------------------|

E-|-0--0--0---0-0-0-------0--0--0---0-0-0------|
B-|-0--0--2h3-3-3-3p2p0---0--0--2h3-3-3-3p2p0--|
G-|-1--1------------------1--1-----------------|
D-|-2--2------------------2--2-----------------|
A-|-2--2------------------2--2-----------------|
E-|-0--0------------------0--0-----------------|

E-|-----------------|-----------------|-----------------------------------|
B-|-----------------|-----------------|-----------------------------------|
G-|-6-6-6-6-6-6-6-6-|-7-7-7-7-7-7-7-7-|-----------------------------------|
D-|-6-6-6-6-6-6-6-6-|-7-7-7-7-7-7-7-7-|-7-7-7-7-7-7-7-7--7-7-7-7-7-7-7-7--|
A-|-4-4-4-4-4-4-4-4-|-5-5-5-5-5-5-5-5-|-7-7-7-7-7-7-7-7--7-7-7-7-7-7-7-7--|
E-|-----------------|-----------------|-5-5-5-5-5-5-5-5--5-5-5-5-5-5-5-5--|

E-|-----------------|-----------------|-----------------------------------|
B-|-----------------|-----------------|-----------------------------------|
G-|-6-6-6-6-6-6-6-6-|-7-7-7-7-7-7-7-7-|------------------9-9-9-9-9-9-9-9--|
D-|-6-6-6-6-6-6-6-6-|-7-7-7-7-7-7-7-7-|-7-7-7-7-7-7-7-7--9-9-9-9-9-9-9-9--|
A-|-4-4-4-4-4-4-4-4-|-5-5-5-5-5-5-5-5-|-7-7-7-7-7-7-7-7--7-7-7-7-7-7-7-7--|
E-|-----------------|-----------------|-5-5-5-5-5-5-5-5-------------------|

SOLO:
E-|-----15-------15-------15--|
B-|-15------15--------15------|
G-|---------------------------|
D-|---------------------------|
A-|---------------------------|
E-|---------------------------|

E-|-----------------------------------------------------------|
B-|-15-----------15------------15--14-----15--14--15--14------|
G-|------14------------14---------------------------------14--|
D-|-----------------------------------------------------------|
A-|-----------------------------------------------------------|
E-|-----------------------------------------------------------|

E-|----0------------------|
B-|----0------------------|
G-|----1---6/7-7-7-7\6\3--|
D-|-2--2------------------|
A-|-2--2---4/5-5-5-5\4\2--|
E-|-0--0---0--------------|


_____________________________________________________________________
Track 3 - Powderfinger - The Day You Come

INTRO & VERSE: (Guitar 1)
E-|-----------------------------------------|
B-|------8-8-8---8-8-8-8--8-8-8-8--8-8-8-8--|
G-|------9-9-9---9-9-9-9--9-9-9-9--9-9-9-9--|
D-|-----------------------------------------|
A-|-----------------------------------------|
E-|-0h7--------7p0------0h7--------7p0------|

E-|------------------------------------------|
B-|-------7-7-7---7-7-7-7--7-7-7-7--7-7-7-7--|
G-|-------7-7-7---7-7-7-7--7-7-7-7--7-7-7-7--|
D-|------------------------------------------|
A-|------------------------------------------|
E-|--0h7--------7p0------0h7--------7p0------|

VERSE: (Guitar 2)
          Em                                 D
E-|----------------------------------|-----------------------------------|
B-|-------8-------8--------8-------8-|-------7-------7--------7-------7--|
G-|-------9-------9--------9-------9-|-------7-------7--------7-------7--|
D-|-------9-------9--------9-------9-|-------7-------7--------7-------7--|
A-|-x-x-x-7-x-x-x-7--x-x-x-7-x-x-x-7-|-x-x-x-5-x-x-x-5--x-x-x-5-x-x-x-5--|
E-|----------------------------------|-----------------------------------|

VERSE RIFF:
E-|----------------------------------|
B-|----------------------------------|
G-|----------------------------------|
D-|---0-2^4^2^0^4-------0-2^4^2^0^4--|
A-|----------------------------------|
E-|-0----------------0---------------|

CHORUS: (Guitar 1)
E-|--------------------------------------------------------|
B-|----------<12>--------------------<7>-------------------|
G-|-----<12>--------<12>---------<7>-----------11------12--|
D-|------------------------------------------11------12----|
A-|-7-------------------------5------------9-----10--------|
E-|--------------------------------------------------------|

CHORUS: (Guitar 2|
E-|--------------------------|---------------------------|
B-|--------------------------|---------------------------|
G-|--------------------------|---------------------------|
D-|---9--9--9--9--9--9--9--9-|---7--7--7--7--7--7--7--7--|
A-|-7--7--7--7--7--7--7--7---|-5--5--5--5--5--5--5--5----|
E-|--------------------------|---------------------------|

E-|-------------------------------------------------------|
B-|------------------------------------------8------------|
G-|-------------------------------------------------------|
D-|---7--7--7--7--7--7--7--7----9--9--9--9----9--9--9--9--|
A-|-9--9--9--9--9--9--9--9----10-10-10-10-10---10-10-10---|
E-|-------------------------------------------------------|

E-|-------------------|
B-|-------------------|
G-|-----4----2---6----|
D-|-2---4----2---6----|
A-|-2---2----0---4----|
E-|-0-----------------|

_____________________________________________________________________
Track 4 - Powderfinger - Already Gone

     E   A   C   B   F#     A   B   E     C#  B
E-|--0---0---0---2-------|-------------|----------|
B-|--0---2---1---4---2---|--5---7------|----------|
G-|--1---2---0---4---3---|--6---8---9--|--6---2---|
D-|--2---2---2---4---4---|--7---9---9--|--6---2---|
A-|--2---0---3---2---4---|--7---9---7--|--4---4---|
E-|--0-------0-------2---|--5---7------|----------|

(E)                             A
you've been working all your life
E		 	     A
     all weekends and overtime
E				 A
     while you're trying to unwind
        C        (B)             (A)   (F#)
     you can't relate to the leisured life


     another day meanders by
     keeping nature's tabled time
     all these things just pass you by
     and you can't relax in a scheduled life


A	    B      E
     promises already gone
A	        B	     E
     there's no escape it's said and done
A		  B	           E	B
     so keep your love forever young

     you've been trying to decide
     multiply or just divide
     all these things are on your mind
     and you can't relax in a leisured life

     promises already gone
     there's no escape it's said and done
     so keep your love forever young

_____________________________________________________________________
Track 5 - Powderfinger - Passenger

  G  D/F#  Bmin  Emin  C  Amin A  D  C#  F#

E---3---------2-----0----0---0------2------2--|
B---3--3------3-----0----1---1---2--3------2--|
G---0--2------4-----0----0---2---2--2--6---3--|
D---0--0------4-----2----2---2---2--0--6---4--|
A---2--0------2-----2----3---0---0-----4---4--|
E---3--2------------0----------------------2--|

Inro/verse

G D/F# Bmin Emin

verse part 2

C Emin Bmin Emin Amin

Prechorus

E------------------------------------|
B-----2-------2-------3-------3------|
G---3---3---3---3---4---4---4---4----|  x 2
D-4-------4-------5-------5-------5--|
A------------------------------------|
E------------------------------------|

E------------------------------------|
B-----2-------2-------2-------2------|
G---3---3---3---3---3---3---3---3----|
D-4-------4-------4-------4-------4--|
A------------------------------------|
E------------------------------------|

Chorus

Bmin  G  A

Bmin  C#  D  A  D


 G                 Lyrics:(Powderfinger/Fanning)
Caged
D/F#        Bm               Em
you hold so tight until your knuckles show
  G
escape
D/F#   Bm                Em
as far away as you could ever know
                  C
you sink them all down
                     Bm
and watch them float up
          Em
until the wheel has spun around
Am
you will be bound by what you are

F#               G
you stand in the corner
      F#              G
your face stripped of colour
    F#
for what?

Bm                  G     A
if you want to be a passenger
Bm                    G            A
climb aboard with me we're leaving now
Bm                   G       A
step outside and see another world
Bm      C#          D    A     D
only if you want to be a passenger

G
chained
D/F#     Bm          Em
so many places you'd prefer to be
G
then framed
D/F#  Bm              Em
by a picket fence and salary

                  C
you sink them all down
                     Bm
and watch them float up
          Em                   Am
until the wheel has spun around

you will be bound by what you are

F#                 G
your tied into the corner
          F#           G
with your hope twisted under
   F#
in knots


Bm                  G     A
if you want to be a passenger
Bm                   G             A
climb aboard with me we're leaving now
Bm                   G       A
step outside and see another world
Bm      C#          D    A     D
only if you want to be a passenger


F#
Ohhhhhhhhhh

Outro

Bmin C# D A A A A ....

_____________________________________________________________________
Track 6 - Powderfinger - Don't wanna be left out

E|-----------------------------------------------------------------------------|
B|-----------------------------------------------------------------------------|
G|-----------------------------------------------------------------------------|
D|-----------------------------------------------------------------------------|
A|-(15-/-0)-------------------------------------55-----------------------------|
E|-(16-/-1)---1111111--44444444--1111111--4-666666-----------------------------|


Verse.
E|-----------------------------------------------------------------------------|
B|-----------------------------------------------------------------------------|
G|-----------------------------------------------------------------------------|
D|-----------------------------------------------------------------------------|
A|-----------------------------------------------------------------------------|
E|-1111111--4444444--1111111--4-666666-----------------------------------------|
[ Tab from: http://www.guitartabs.cc/tabs/p/powderfinger/internationalist_tab.html ]
Chorus.
E|-----------------------------------------|
B|-----------------------------------------|
G|------66666666---------------------------|
D|-6-6--66666666--6666666--44444--66-------|
A|-6-6--44444444--6666666--44444--66-------|
E|-8-8------------4444444--66666--88-------|

E|---------------------------------------------------------------|
B|---------------------------------------------------------------|
G|--10-10-10-10-10-10-10-10--------------------------------------|
D|--10-10-10-10-10-10-10-10---66666666--11-11-11-11-11-11-11-11--|
A|--8  8  8  8  8  8  8  8 ---66666666--11-11-11-11-11-11-11-11--|
E|----------------------------44444444--9--9--9--9--9--9--9--9---|


E|---------------------------|
B|---------------------------|
G|---------------------------|
D|-10-10-10-10-10-10-10-10---|
A|-10-10-10-10-10-10-10-10---|
E|-8  8  8  8  8  8  8  8 ---|


E|-----------------------------------------------------------------------------|
B|-----------------------------------------------------------------------------|
G|--10-10-10-10-10-10-10-13-13-13-13-13-13-13-10-10-10-10-10-10-10-13-16-16-16-|
D|-----------------------------------------------------------------------------|
A|-----------------------------------------------------------------------------|
E|-----------------------------------------------------------------------------|

_____________________________________________________________________
Track 7 - Powderfinger - Good-Day Ray

INTRO:
E-|---------------------------------|
B-|---------------------------------|
G-|---------------------------------|
D-|-12--12--12--12--12--12--12--12--|
A-|---------------------------------|
E-|-10--10--10--10--10--10--10--10--|

(guitar 1 )
E-|-------------------------------------------|
B-|-------------------------------------------|
G-|---------------------10-----------------8--|
D-|-12--12--12--12--12--10-----------------8--|
A-|-12--12--12--12--12--8------------------6--|
E-|-10--10--10--10--10------6--6--6--7--8-----|

(guitar 2)
E-|--------------------------------------------|
B-|--------------------------------------------|
G-|---------------------10------------------8--|
D-|-12--12--12--12--12--10--8--8--8--9--10--8--|
A-|-12--12--12--12--12--8---8--8--8--9--10--6--|
E-|-10--10--10--10--10------6--6--6--7--8------|

VERSE:
(guitar 1 )
E-|------------------------|
B-|---------------------0--|
G-|---------------------0--|
D-|-12--12--12--12--12--0--|
A-|-12--12--12--12--12-----|
E-|-10--10--10--10--10-----|

(guitar 2)
E-|-------------------------|
B-|-------------------------|
G-|---------------------12--|
D-|-12--12--12--12--12--12--|
A-|-12--12--12--12--12--10--|
E-|-10--10--10--10--10------|

CHORUS:
(guuitar 1 & 2)
E-|-----------------------------------------------------|
B-|-----------------------------------------------------|
G-|------------------8-8-8-8-8-8-8-8--5-5-5-5-----------|
D-|-5-5-5-5-5-5-5-5--8-8-8-8-8-8-8-8--5-5-5-5--3-3-3-3--|
A-|-5-5-5-5-5-5-5-5--6-6-6-6-6-6-6-6--3-3-3-3--3-3-3-3--|
E-|-3-3-3-3-3-3-3-3----------------------------1-1-1-1--|

E-|------------------------------------------------------|
B-|------------------------------------------------------|
G-|------------------------------------------------------|
D-|------------------------------------------------------|
A-|------------------------------------------------------|
E-|-10--10--10--10--10--10-etc--9-9--8-8--7-7--6-6--5-5--|

OUTRO:
(guitar 1)
E-|--------------|
B-|--------------|
G-|-7-7-7-7-7----|
D-|-7-7-7-7-7-5--|
A-|-5-5-5-5-5-5--|
E-|-----------3--|

(guitar 2)
E-|-------------------------|
B-|-------------------------|
G-|---------------------12--|
D-|-12--12--12--12--12--12--|
A-|-12--12--12--12--12--10--|
E-|-10--10--10--10--10------|

_____________________________________________________________________
Track 8 - Powderfinger - Trading Places

|E------------------------------------------|
|B-----------0-----0-3---------0------------|
|G-----0h2p0-----2-----------0---------0----|
|D-------------0---------2h4---------4---4--|
|A---------------------0--------------------|
|E--0----------------------------3----------|

|E--------------------------------------------|
|B-----------0-----0-3------------0------0--3-|
|G-----0h2p0-----2---------0h2p0-------2------|
|D-------------0---------------------0--------|
|A---------------------0----------------------|
|E--0-----------------------------------------|

|E------------------------------------------|
|B-----------0-----0-3---------0------------|
|G-----0h2p0-----2-----------0---------0----|
|D-------------0---------2h4---------4---4--|
|A---------------------0--------------------|
|E--0----------------------------3----------|

|E-----------------------------------------|
|B----------------0-3----------0-----0-----|
|G--------------2-------0h2p0------2----0--|
|D-----4h5/7--0------------------0---------|
|A--------------------0--------------------|
|E--0--------------------------------------|

|E------------------0-------------------------------3-3-3---|
|B---------2----3--------1--1--1---------2-----1-1--3-3-3---|
|G-------0---------------2--2--2-------0---0---0-0--2-2-2---|
|D-----2----------2---2--3--3--3-----2-------2-2-2----------|
|A-----------------------3--3--3---------------3-3----------|
|E---0-----------------------------0------------------------|

|E---------------0-------------------------------3-3-3-3-3-3-2-2-2-2-2-2--|
|B--------2--3--------1--1---------2------1-1-1--3-3-3-3-3-3-3-3-3-3-3-3--|
|G------0-------------2--2-------0---0----0-0-0--0-0-0-0-0-0-2-2-2-2-2-2--|
|D----2--------2---2--3--3-----2-------2--2-2-2--0-0-0-0-0-0-0-0-0-0-0-0--|
|A--------------------3--3----------------3-3-3--------------0-0-0-0-0-0--|
|E--0------------------------0--------------------------------------------|

|E---------------|
|B--4-4-4-4-4-4--|
|G--4-4-4-4-4-4--|
|D--4-4-4-4-4-4--|
|A--2-2-2-2-2-2--|
|E---------------|

|E--0-0-0-0-0-0-0-0-0-0-0-0-0-0-0-0-0-0---|
|B--0-0-0-0-0-0-0-0-0-0-0-0-0-0-0-0-0-0---|
|G--0-0-0-0-0-0-4-4-4-4-4-4-2-2-2-2-2-2---|
|D--2-2-2-1-1-1-4-4-4-4-4-4-2-2-2-2-2-2---|
|A--2-2-2-2-2-2-2-2-2-2-2-2-0-0-0-0-0-0---|
|E--0-0-0---------------------------------|

_____________________________________________________________________
Track 9 - Powderfinger - Private Man

E-------------------------------|
B----------------------------9--|
G--11--x-9--x-11--x-9--x-11-----|
D-------------------------------|
A-------------------------------|
E-------------------------------|

E---------------------------------|
B--12--x-10--x-9------------------|
G-----------------x-11--x-9--x-11-|
D---------------------------------|
A---------------------------------|
E---------------------------------|

E---------------------------------|
B--12--x-10--x-9------------------|
G-----------------9---------------|
D---------------------------------|
A---------------------------------|
E---------------------------------|

E--7-----7-----------2-----|
B--7-----7-----7-----2-----|
G--9-----8-----6-----3-----|
D--9-----9-----6-----4-----|
A--7-----9-----4-----4-----|
E--------7-----------2-----|

E---7--7--7--7--7--7--7--7--7--7--7--7--7--7--7--7--|
B---7--7--7--7--7--7--7--7--7--7--7--7--7--7--7--7--|
G---9--9--9--8--8--8--9--9--9--9--9--8--8--8--9--9--|
D---9--9--9--9--9--9--9--9--9--9--9--9--9--9--9--9--|
A---7--7--7--7--7--7--7--7--7--7--7--7--7--7--7--7--|
E---------------------------7--7--7--7--7--7--7--7--|

E--------------------------2--2--2--2--2--2--2--2--|
B--7--7--7--7--7--7--7--7--2--2--2--2--2--2--2--2--|
G--6--6--6--6--6--6--6--6--3--3--3--3--3--3--3--3--|
D--6--6--6--6--6--6--6--6--4--4--4--4--4--4--4--4--|
A--4--4--4--4--4--4--4--4--4--4--4--4--4--4--4--4--|
E--------------------------2--2--2--2--2--2--2--2--|

E---7--7--7--7--7--7--7--7--7--7--7--7--7--7--7--7--|
B---7--7--7--7--7--7--7--7--7--7--7--7--7--7--7--7--|
G---9--9--9--8--8--8--9--9--9--9--9--8--8--8--9--9--|
D---9--9--9--9--9--9--9--9--9--9--9--9--9--9--9--9--|
A---7--7--7--7--7--7--7--7--7--7--7--7--7--7--7--7--|
E---------------------------7--7--7--7--7--7--7--7--|

E--------------------------5--5--5--5--5--5--5--5--|
B--7--7--7--7--7--7--7--7--5--5--5--5--5--5--5--5--|
G--6--6--6--6--6--6--6--6--6--6--6--6--6--6--6--6--|
D--6--6--6--6--6--6--6--6--7--7--7--7--7--7--7--7--|
A--4--4--4--4--4--4--4--4--7--7--7--7--7--7--7--7--|
E--------------------------5--5--5--5--5--5--5--5--|

E-----------0~---0------------------0~------|
B----------0~------3-2-0-----------0~----3~-|
G---------0~-------------2-0------5~--------|
D--------2~----------------------5~---------|
A-------2~--------------------3~------------|
E---0~--------------------------------------|

E---------3~---3-2---0------------------------------|
B------------------0---3----3h5~--5~-5-5p3--3--3----|
G------------------------0-----------------------0--|
D--2--2---------------------------------------------|
A---------------------------------------------------|
E---------------------------------------------------|

E---------3~---3-2---0------------7------7-----7--7--|
B------------------0---3----3/5~------5-----5---5--5-|
G------------------------0---------------------------|
D--2--2----------------------------------------------|
A----------------------------------------------------|
E----------------------------------------------------|

_____________________________________________________________________
Track 10 - Powderfinger - Celebrity Head

INTRO - VERSE:
E-|---------------------------|--------------------------------|
B-|---------------------------|--------------------------------|
G-|-6-6---6-6-6---6-6---6-6-6-|-6-6---6-6-6---7-7-7-7-7-7-7-7--|
D-|-6-6---6-6-6---5-5---5-5-5-|-6-6---6-6-6---7-7-7-7-7-7-7-7--|
A-|-4-4---4-4-4---4-4---4-4-4-|-4-4---4-4-4---5-5-5-5-5-5-5-5--|
E-|---------------------------|--------------------------------|

PRE CHORUS:
E-|------------|
B-|-9----(14)--|
G-|-10---------|
D-|-11---------|
A-|-11---------|
E-|-9----------|

CHORUS CHORDS:
E-|--------------------------|
B-|--------------------------|
G-|-13--12--11--9------6-----|
D-|-13--12--11--9---7--6--4--|
A-|-11--10--9---7---7--4--4--|
E-|-----------------5-----2--|

OUTRO:
E-|------------|
B-|-9----(14)--|
G-|-10---------|
D-|-11---------|
A-|-11---------|
E-|-9----------|

_____________________________________________________________________
Track 11 - Powderfinger - Over My Head

VERSE :

E-|--------------------------------------------------------|
B-|-5--5-5--5-5---6--6-6--6-6---6--6-6--6-6---3--3-3--3-3--|
G-|-5--5-5--5-5---7--7-7--7-7---7--7-7--7-7---4--4-4--4-4--|
D-|-5--5-5--5-5---7--7-7--7-7---8--8-8--8-8---5--5-5--5-5--|
A-|-3--3-3--3-3---5--5-5--5-5---8--8-8--8-8---5--5-5--5-5--|
E-|-----------------------------6--6-6--6-6---3--3-3--3-3--|

CHORUS:

E-|-----------------------------------------------|
B-|-6--6-6--6-6---10--10-10--10-10---6--6-6--6-6--|
G-|-7--7-7--7-7---10--10-10--10-10---7--7-7--7-7--|
D-|-7--7-7--7-7---10--10-10--10-10---8--8-8--8-8--|
A-|-5--5-5--5-5---8---8--8---8--8----8--8-8--8-8--|
E-|----------------------------------6--6-6--6-6--|


E-|-1-|-
B-|-1-|-
G-|-2-|-
D-|-3-|-
A-|-3-|-
E-|-1-|-

_____________________________________________________________________
Track 12 - Powderfinger - Capoicity

capo on first fret

chords
    E  Asus2  C  B
e-|-0----0----0--0----|
B-|-0----0----1--4----|
G-|-1----2----0--4----|
D-|-2----2----2--4----|
A-|-2----0----3--2----|
E-|-0-----------------|

Intro;

E,Asus2,E,Asus2

verse;
E      Asus2            E             Asus2
honesty is out of style, so hammer in the coffin nails
E         Asus2               E            Asus2
a letter sent across to land, with kissers for you

chorus thing;
C               Asus2    C          Asus2
we'll tell them nothing, our little secret
C             Asus2    C         B
they'll never make us, ever open up

at this point a little fill by guitar 2 comes in and goes over the verse

E,Asus2,E,Asus2

verse;
E         Asus2                E     Asus2
tradition in and out the door, family our fatal flaw
E        Asus2            E ,            Asus2
a future frameless in design, a seamless concept

chorus;
C               Asus2    C          Asus2
we'll tell then nothing, our little secret
C             Asus2   C         B
they'll never make us ever open up
C               B
never break our trust
C                  B
until we're coffin dust


_____________________________________________________________________
Track 13 - Powderfinger - Lemon Sunrise

E--------------------------------------------|
B--------------------------------------------|
G-----------2---4/6--------------------------|
D---2---4------------------------------------|
A--------------------------------------------|
E--------------------------------------------|

E--------------------------------------------|
B-----------------------14----14----14-------|
G-----------------------14----14----14-------|
D-----------------------14----14----14-------|
A--------------------------------------------|
E--------------------------------------------|

E--------------------------------------------|
B--------------------------------------------|
G-----------2---4----------------------------|
D---2---4------------------------------------|
A--------------------------------------------|
E--------------------------------------------|

E--------------------------------------------|
B-----------------------12----12----12-------|
G-----------------------12----12----12-------|
D-----------------------12----12----12-------|
A--------------------------------------------|
E--------------------------------------------|

E----------------------------|
B--------------------10------|
G--------9---------------11--|
D-----9-----9----------------|
A--7-----------9--12---------|
E----------------------------|

E----------------------------|
B--------------------10--7---|
G--------9-------------------|
D-----9-----9-----7----------|
A--7-----------9-------------|
E----------------------------|

E------------------------------|-------------------------|
B-------12b(14)r-b(14)r-b(14)--|-----14b(17)-14--14h12---|
G------------------------------|-------------------------|
D------------------------------|-------------------------|
A------------------------------|-------------------------|
E------------------------------|-------------------------|

E------------------------------|-------------------------|
B------------------------------|-------------------------|
G--14--14/16--------------16p14|-h16---------------------|
D------------------------------|-------------------------|
A------------------------------|-------------------------|
E------------------------------|-------------------------|

E--------------15---14---12----|--10-10/12--10-----------|
B--------------17---15---14----|--12-12/14--12----8~-----|
G------------------------------|-------------------------|
D------------------------------|-------------------------|
A------------------------------|-------------------------|
E------------------------------|-------------------------|

E------------------------------|-------------------------|
B------------------------------|------------8------------|
G-7h9~-------------------------|-7h9---------------------|
D------------------------------|-------------------------|
A------------------------------|-------------------------|
E------------------------------|-------------------------|

E------------------------------|-------------------------|
B-------8--7----7h8-7----------|-------------------------|
G---------------------------9~-|----7~-------------------|
D------------------------------|-------------------------|
A------------------------------|-------------------------|
E------------------------------|-------------------------|

E------------------------------|-------------------------|
B------------------------------|-------------------------|
G------------------------------|-------------------------|
D--7~--------------------------|--7h9-9-9-9--7--9/12-----|
A------------------------------|-------------------------|
E------------------------------|-------------------------|
Comments