Powderfinger - How Far Have We Really Come Chords & Tabs

 

How Far Have We Really Come Chords & Tabs

Powderfinger Chords & Tabs

Version: 1 Type: Tab 0 ratings
1 star 2 stars 3 stars 4 stars 5 stars
comments

How Far Have We Really Come Tab

   
-------------------------------------------------------------------------------
              HOW FAR HAVE WE REALLY COME? - Powderfinger
-------------------------------------------------------------------------------
Tabbed by:  Dylan Knoll
Email:      dkknoll@yahoo.com.au

Capo: 5th Fret

Intro and Verse:
(Once through in intro and three times in the verse)
e|-------5h7-------5h7-------8---8---8-------7-------0-----------------------|
B|-------8---------8---------8---8---8-------8-------7-----------------------|
G|---9---------7-------------5---5---5---7-------7---------------------------|
D|---9---------7---------5---------------5-------7---------------------------|
A|---7---------5---------7-----------------------5---------------------------|
E|-----------------------8---------------------------------------------------|

(last time in intro and verse)
e|-------5h7-------5h7-------8---8---8-------7-------5-----------------------|
B|-------8---------8---------8---8---8-------8-------8-----------------------|
G|---9---------7-------------5---5---5---7-------7---------------------------|
D|---9---------7---------5---------------5-------5---------------------------|
A|---7---------5---------7---------------------------------------------------|
E|-----------------------8---------------------------------------------------|
[ Tab from: http://www.guitartabs.cc/tabs/p/powderfinger/how_far_have_we_really_come_tab.html ]
Chorus:
(4 times through)
e|-------8---7---7-------5---7---7-------------------------------------------|
B|-------8---8---8-------5---8---8-------------------------------------------|
G|-------5---7---7-------5---7---7-------------------------------------------|
D|---5---5---5---5---7---7---5---5-------------------------------------------|
A|---7---------------7-------------------------------------------------------|
E|---8---------------5-------------------------------------------------------|
Then goes to second verse, back to chorus then bridge.

Bridge
(twice through)
e|---5---5---5---5---8---8---7---7-------------------------------------------|
B|---7---7---7---7---8---8---8---8-------------------------------------------|
G|---7---7---7---7---5---5---7---7-------------------------------------------|
D|---7---7---7---7---5---5---5---5-------------------------------------------|
A|---5---5---5---5---7---7---------------------------------------------------|
E|-------------------8---8---------------------------------------------------|

(thrice through)
e|---5---5---5---5-----------------------------------------------------------|
B|---7---7---7---7-----------------------------------------------------------|
G|---7---7---7---7-----------------------------------------------------------|
D|---7---7---7---7-----------------------------------------------------------|
A|---5---5---5---5-----------------------------------------------------------|
E|---------------------------------------------------------------------------|
Chorus through twice (end on D formation cord)


| /  slide up
| \  slide down
| h  hammer-on
| p  pull-off
| ~  vibrato
| +  harmonic
| x  Mute note
===============================================================================
Comments