Powderfinger - Double Allergic Chords & Tabs

 

Double Allergic Chords & Tabs

Powderfinger Chords & Tabs

Version: 1 Type: Tab 0 ratings
1 star 2 stars 3 stars 4 stars 5 stars
comments

Double Allergic Tab

   
Powderfinger - Double Allergic

Track List
#1 Skinny Jean
#2 Turtle's Head
#3 Pick You Up
#4 d.a.f
#5 Boing Boing
#6 Give
#7 Oipic
#8 Living Type
#9 JC
#10 Glimpse
#11 Take Me In
#12 (Return of) The Electric Horseman

_____________________________________________________________________
Track 1 - Powderfinger - Skinny Jeans

VERSE
E-|---------------------------|
B-|---------------------------|
G-|-7/9-9-9--7-7--4--4--------|
D-|-7/9-9-9--7-7--4--4--4/5-5-|
A-|-5/7-7-7--5-5--2--2--4/5-5-|
E-|---------------------2/3-3-|

PRE CHORUS 
E-|------------------------|
B-|------------------------|
G-|-11\9-9-9--4-5-5--------|
D-|-11\9-9-9--4-5-5--4/5-5-|
A-|--9\7-7-7--2-3-3--4/5-5-|
E-|------------------2/3-3-|

CHORUS
E-|--------------------------|
B-|--------------------------|
G-|-11\9-9-9--4--7-7--11\9-9-|
D-|-11\9-9-9--4--7-7--11\9-9-|
A-|--9\7-7-7--2--5-5---9\7-7-|
E-|--------------------------|

______________________________________________________________________
Track 2 - Powderfinger - Turtle's Head

INTRO:
D-|-----------------------------------------|
C-|-------2h3p2p0---------2h3p2p0--7\5--5\4-|
G-|-0-----0--------[12]---0--------0----0---|
C-|-0-----0--------[12]---0--------0----0---|
C-|-0--------------[12]---------------------|
C-|-----------------------------------------|

D-|-----------------------|
C-|-----------------------|
G-|-----------------------|
C-|-----------------------|
C-|-----------------------|
C-|-0--5-5-5--3--3h5--3h5-|

1ST VERSE:
D-|---------------------|
C-|---------------------|
G-|-5-5-5-5-5-5-3h5---5-|
C-|-0-0-0-0-0-0-0---0-0-|
C-|-0-0-0-0-0-0-0---0-0-|
C-|-------------------0-|

PRE CHORUS:
D-|--------------------------------------------|
C-|--------------------------------------------|
G-|--------------------------------------------|
C-|-0-8-8-8-8--3-5-5-5-5--0-8-8-8-8--3-5-5-5-5-|
C-|-0-8-8-8-8--3-5-5-5-5--0-8-8-8-8--3-5-5-5-5-|
C-|-0-8-8-8-8--3-5-5-5-5--0-8-8-8-8--3-5-5-5-5-|

D-|--------------------------------------|
C-|--------------------------------------|
G-|--------------------------------------|
C-|-0-8-8-8-8--3-5-5-5-5--0-8-8-8-8--3-0-|
C-|-0-8-8-8-8--3-5-5-5-5--0-8-8-8-8--3-0-|
C-|-0-8-8-8-8--3-5-5-5-5--0-8-8-8-8--3-0-|

CHORUS:
D-|------------------|
C-|------------------|
G-|------------------|
C-|-7-7--8--8-5--5-5-|
C-|-0-0--0--0-0--0-0-|
C-|-0-0--0--0-0--0-0-|

BREAK:
D-|-----------------------|
C-|-----------------------|
G-|-----------------------|
C-|-----------------------|
C-|-----------------------|
C-|-0--5-5-5--3--3h5--3h5-|

2ND VERSE:
D-|---------------------|
C-|---------------------|
G-|-5-5-5-5-5-5-3h5---5-|
C-|-0-0-0-0-0-0-0---0-0-|
C-|-0-0-0-0-0-0-0---0-0-|
C-|-------------------0-|

PRE CHORUS:
D-|--------------------------------------------|
C-|--------------------------------------------|
G-|--------------------------------------------|
C-|-0-8-8-8-8--3-5-5-5-5--0-8-8-8-8--3-5-5-5-5-|
C-|-0-8-8-8-8--3-5-5-5-5--0-8-8-8-8--3-5-5-5-5-|
C-|-0-8-8-8-8--3-5-5-5-5--0-8-8-8-8--3-5-5-5-5-|

D-|--------------------------------------|
C-|--------------------------------------|
G-|--------------------------------------|
C-|-0-8-8-8-8--3-5-5-5-5--0-8-8-8-8--3-0-|
C-|-0-8-8-8-8--3-5-5-5-5--0-8-8-8-8--3-0-|
C-|-0-8-8-8-8--3-5-5-5-5--0-8-8-8-8--3-0-|

CHORUS:
D-|------------------|
C-|------------------|
G-|------------------|
C-|-7-7--8--8-5--5-5-|
C-|-0-0--0--0-0--0-0-|
C-|-0-0--0--0-0--0-0-|

BRIDGE CHORDS:
D-|------|
C-|------|
G-|------|
C-|-0--5-|
C-|-0--5-|
C-|-0--5-|

OUTRO:
D-|-----------------|
C-|-----------------|
G-|-3/5--5/7-5/7--5-|
C-|-0----0---0----0-|
C-|-0----0---0----0-|
C-|-----------------|

D-|-----------------------------------|
C-|-2h3p2p0---------2h3p2p0--7\5--5\4-|
G-|-0--------[12]---0--------0----0---|
C-|-0--------[12]---0--------0----0---|
C-|----------[12]---------------------|
C-|-----------------------------------|


______________________________________________________________________
Track 3 - Powderfinger - Pick You Up

VERSE CHORDS:
D-|-----|-----|-----|-----|
C-|-----|-----|-----|-----|
G-|--3--|-----|--5--|--8--|
C-|--3--|--3--|--5--|--8--|
C-|--7--|--5--|--5--|--8--|
C-|--3--|--3--|--5--|--8--|

E-|-----|-----|-----|-----|
B-|-----|-----|-----|-----|
G-|--8--|--8--|-----|-----|
D-|--8--|--8--|--3--|--6--|
A-|--6--|--6--|--3--|--6--|
E-|-----|--6--|--1--|--4--|

VERSE RIFF 
E-|----------------------------|
B-|----------------------------|
G-|-8~~--/10~--10~--10\8---5/8-|
D-|----------------------------|
A-|-6~~--/8~~--8~~---8\6---3/6-|
E-|----------------------------|

CHORUS:
D-|----------------|
C-|----------------|
G-|--0---3-5-5-5-5-|
C-|--0---3-5-5-5-5-|
C-|--0---3-5-5-5-5-|
C-|--0---3-5-5-5-5-|

E-|--------------------|
B-|--------------------|
G-|--5---8-10-10-10-10-|
D-|--5---8-10-10-10-10-|
A-|--3---6-8--8--8--8--|
E-|--------------------|

BRIDGE
D-|-----------------------|
C-|-----------------------|
G-|--0-5br--2br--10--5--3-|
C-|--0-0----0----10--5--3-|
G-|--0-----------10--5--3-|
C-|--0-----------10--5--3-|

E-|-------------------------------------|
B-|-13b(14)r13--------------------------|
G-|------------2b(3)r2--------------8-8-|
D-|---------------------8-8---3-3---8-8-|
A-|---------------------8-8---3-3---6-6-|
E-|---------------------6-6---1-1-------|

______________________________________________________________________
Track 4 - Powderfinger - d.a.f

INTRO:
E-|--------------------|-----------|
B-|--------------------|-----------|
G-|-9/11-11/12\11-9-11-|-3-3-3-2-2-|
D-|-0----0-----0--0-0--|-0-0-0-0-0-|
A-|--------------------|-----------|
E-|--------------------|-----------|

VERSE PROGRESSION:
E-|-------------|---------|
B-|-3-3---2-2-3-|-1-1-1-1-|
G-|-2-2---2-2-2-|-2-2-2-2-|
D-|-0-0---2-2-2-|-3-3-3-3-|
A-|-------0-0-0-|-3-3-3-3-|
E-|-------------|---------|

PRE CHORUS:
E-|--------------------|-----------|
B-|--------------------|-----------|
G-|-9/11-11/12\11-9-11-|-3-3-3-3-3-|
D-|-0----0-----0--0-0--|-0-0-0-0-0-|
A-|--------------------|-----------|
E-|--------------------|-----------|

1ST CHORUS:
E-|----------|-------------|----------|-------------|
B-|------5-5-|-------------|------5-5-|-------------|
G-|-7-7--6-6-|-10-10-10-10-|-7-7--6-6-|-10-10-10-10-|
D-|-7-7--7-7-|-10-10-10-10-|-7-7--7-7-|-10-10-10-10-|
A-|-5-5--7-7-|-8--8--8--8--|-5-5--7-7-|-8--8--8--8--|
E-|------5-5-|-------------|------5-5-|-------------|

2ND CHORUS:
E-|----------|-------------|----------|-------------|
B-|------5-5-|-------------|------5-5-|-------------|
G-|-7-7--6-6-|-10-10-10-10-|-7-7--6-6-|-10-10-10-10-|
D-|-7-7--7-7-|-10-10-10-10-|-7-7--7-7-|-10-10-10-10-|
A-|-5-5--7-7-|-8--8--8--8--|-5-5--7-7-|-8--8--8--8--|
E-|------5-5-|-------------|------5-5-|-------------|

E-|--------------|
B-|--------------|
G-|-2-2-2-2--1-1-|
D-|-3-3-3-3--2-2-|
A-|-3-3-3-3--2-2-|
E-|-1-1-1-1--0-0-|

E-|----------|-------------|--------------|
B-|------5-5-|-------------|--------------|
G-|-7-7--6-6-|-10-10-10-10-|-2-2-2-2--1-1-|
D-|-7-7--7-7-|-10-10-10-10-|-3-3-3-3--2-2-|
A-|-5-5--7-7-|-8--8--8--8--|-3-3-3-3--2-2-|
E-|------5-5-|-------------|-1-1-1-1--0-0-|

E-|----------|-------------|--------------|
B-|------5-5-|-------------|--------------|
G-|-7-7--6-6-|-10-10-10-10-|-2-2-2-2--1-1-|
D-|-7-7--7-7-|-10-10-10-10-|-3-3-3-3--2-2-|
A-|-5-5--7-7-|-8--8--8--8--|-3-3-3-3--2-2-|
E-|------5-5-|-------------|-1-1-1-1--0-0-|

PRE CHORUS:
E-|--------------------|-----------|
B-|--------------------|-----------|
G-|-9/11-11/12\11-9-11-|-3-3-3-3-3-|
D-|-0----0-----0--0-0--|-0-0-0-0-0-|
A-|--------------------|-----------|
E-|--------------------|-----------|

LAST CHORUS:
E-|----------|-------------|----------|-------------|
B-|------5-5-|-------------|------5-5-|-------------|
G-|-7-7--6-6-|-10-10-10-10-|-7-7--6-6-|-10-10-10-10-|
D-|-7-7--7-7-|-10-10-10-10-|-7-7--7-7-|-10-10-10-10-|
A-|-5-5--7-7-|-8--8--8--8--|-5-5--7-7-|-8--8--8--8--|
E-|------5-5-|-------------|------5-5-|-------------|

E-|--------------|
B-|--------------|
G-|-2-2-2-2--1-1-|
D-|-3-3-3-3--2-2-|
A-|-3-3-3-3--2-2-|
E-|-1-1-1-1--0-0-|

LEAD OUTRO
E-|-----------------------------|
B-|-15--13----------------------|
G-|--------14--15---12-12-12-12-|
D-|-----------------------------|
A-|-----------------------------|
E-|-----------------------------|

E-|-----------------------------|
B-|-15--13----------------------|
G-|--------14--15---15-15-15-15-|
D-|-----------------------------|
A-|-----------------------------|
E-|-----------------------------|

______________________________________________________________________
Track 5 - Powderfinger - Boing Boing

INTRO:
E-|----------------------------------------------------|
B-|----------------------------------------------------|
G-|----------------------------------------------------|
D-|----------------------------------------------------|
A-|-----3-----3-----3-----3-----3-5------3-----3---3-5-|
D-|-0-0---0-0---0-0---0-0---0-0------0-0---0-0---0-----|

VERSE RIFF:
E-|---------------------------------|
B-|---------------------------------|
G-|---------------------------------|
D-|---------------------------------|
A-|-------2-3-----------------------|
D-|-0---0-----2---0-2-3-5---0-3-2-0-|

PRE CHORUS:
E-|----------------------------------|
B-|----------------------------------|
G-|----------------------------------|
D-|--------5-----------------5-------|
A-|----3------3---3------3-----3---3-|
D-|--3---3------3------3---3-----3---|

SCREAM BIT: (USE YOUR WAH WAH)
E-|---------------------|
B-|---------------------|
G-|---------------------|
D-|---------------------|
A-|-8~~--8~~--7~~--6~~--|
D-|---------------------|

CHORUS:
E-|---------------------------------|
B-|---------------------------------|
G-|-------4-5-----------------------|
D-|-0---0-4-5-2---0-2-3-5---0-3-2-0-|
A-|-0---0-2-3-2---0-2-3-5---0-3-2-0-|
D-|-0---0-----2---0-2-3-5---0-3-2-0-|


BRIDGE:
E-|---------------------------------|
B-|---------------------------------|
G-|---------------------------------|
D-|---------------------------------|
A-|---5h6-----5h6------5h6------5h6-|
D-|-0-------0--------0--------0-----|

E-|-----------------------------------|
B-|-----------------------------------|
G-|-----------------------------------|
D-|-----------------------------------|
A-|---10h12---10h12----10h12----10h12-|
D-|-0-------0--------0--------0-------|

SCREAM BIT:
E-|---------------------|
B-|---------------------|
G-|---------------------|
D-|---------------------|
A-|-8~~--8~~--7~~--6~~--|
D-|---------------------|

OUTRO:
E-|---------------------------------|
B-|---------------------------------|
G-|---------------------------------|
D-|---------------------------------|
A-|-------2-3-----------------------|
D-|-0---0-----2---0-2-3-5---0-3-2-0-|

______________________________________________________________________
Track 6 - Powderfinger - Give
INTRO:
E-|--------------------------|
B-|--------------------------|
G-|--------------------------|
D-|--------------------------|
A-|---7br7~~----7br7~~-------|
E-|-0-0-------0-0------------|

C  d  E  

1ST VERSE:

E type 2
I keep looking back for clues

C      d        E
They're all     mine

E type 2
I keep pullin back from truths

C d E
  they're all mine to give

C d E
  all mine to give 

C d E
  all mine


2nd VERSE:

E type 2
lies to relieve and soothe

C      d        E
They're all     mine

E type 2
I would break the holy rules for you


CHORUS:

C d E
  they're all mine to give
[ Tab from: http://www.guitartabs.cc/tabs/p/powderfinger/double_allergic_tab.html ]
C d E
  all mine to give 
C d E
  all mine

SOLO: E type 2

BRIDGE:

a
You've got you're breaks on


3rd VERSE:

E type 2
I should run a mile for you


CHORUS:

C d E
  you're all mine to give

C d E
  all mine to give 

C d E
  all mine


CHORDS USED:
    C   d   E   E type 2    a
E-|-------------0--------------|-
B-|-------------0-----------0--|-
G-|-5---7---9---9-----------6--|-
D-|-5---7---9---9-----------7--|-
A-|-3---5---7---7-----------0--|-
E-|-------------0--------------|-
	
______________________________________________________________________
Track 7 - Powderfinger - Oipic
INTRO:
E-|---------------|
A-|---------------|
G-|-7---7---2---2-|
D-|-0-0-----0-0---|
A-|---------------|
D-|---------------|

1ST VERSE:
E-|------------------------------|
A-|-------------------3--------5-|
G-|-7---7--7\2-2-0----0--------0-|
D-|-0-0--------0-0--3---3--3/5---|
A-|------------------------------|           
D-|------------------------------|

E-|-------------|
A-|-------------|
G-|-------------|
d-|-7-7-7-7-7-7-|
a-|-7-7-7-7-7-7-|
d-|-7-7-7-7-7-7-|

2ND VERSE:
E-|---------------------------------|
A-|----7-7-7-7\5-5------------------|
G-|----7-7-7-7\5-5---5--5-5-5-5/7-7-|
D-|-0--0-0-0-0---0---3--3-3-3-3/5-5-|
A-|-0--0-0-0-0---0---3--3-3-3-3/5-5-|
D-|-0--0-0-0-0---0---3--3-3-3-3/5-5-|

E-|------------------------------|
A-|------------------------------|
G-|-7--7----2--2----3--3----5--5-|
D-|-7--7----2--2-0--3--3----5--5-|
A-|-5--5----0--0--3-1--1----3--3-|
D-|-0--0-------------------------|

E-|-----------------|
A-|-----------------|
G-|-----------------|
d-|-7-7-7-7-7-7-7-7-|
a-|-7-7-7-7-7-7-7-7-|
d-|-7-7-7-7-7-7-7-7-|

E-|-----------|
A-|-----------|
G-|---7--7-7--|
D-|-0-7--7-7--|
A-|-0-5--5-5--|
D-|-0-0--0-0--|

E-|------------|
A-|------------|
G-|---7--7-7/9-|
D-|-0-7--7-7---|
A-|-0-5--5-5/7-|
D-|-0----------|

E-|-----------------------------------|
A-|-----------------------------------|
G-|-10-10--9-9--7-7--7-5-2-5/7---5-2--|
D-|----------------------2-------5-2--|
A-|-8--8---7-7--5-5--5-3-0-3/5-0-3-0--|
D-|-0--0---0-0--0-0--0-0---0---0-0----|

E-|---------------------------------|
A-|---------------------------------|
G-|-15-15--14-14----15-15--14-12-10-|
D-|---------------------------------|
A-|-13-13--12-12----13-13--12-10-8--|
D-|-0--0---0--0-----0--0---0--0--0--|

E-|--------------------------------|
A-|--------------------------------|
G-|-10-10--9-9--7-7--7-7---7-7--7--|
D-|------------------7-7---7-7--7--|
A-|-8--8---7-7--5-5--5-5-0-5-5--5--|
D-|-0--0---0-0--0-0--0-0---0-0--0--|

E-|-------------|
A-|-------------|
G-|---7-7-9-5-2-|
d-|-0-7-7-9-5-2-| 
a-|-0-5-5-7-3-0-|
D-|-0-0-0-0-0---|

E-|----------------|
A-|----------------|
G-|---7-7-9-10-10--|
D-|-0-7-7-9-10-10--|
A-|-0-5-5-7-8--8---|
D-|-0-0-0-0-0--0---|

E-|-------------------|
A-|-------------------|
G-|-12-12-12-10-10-10-|
d-|-12-12-12-10-10-10-|
A-|-10-10-10-8--8--8--|
D-|-0--0--0--0--0--0--|

E-|-------------|
A-|-------------|
G-|---7-7-9-5-2-|
d-|-0-7-7-9-5-2-|
a-|-0-5-5-7-3-0-|
D-|-0-0-0-0-0---|

E-|----------------------------------------|
A-|----------------------------------------|
G-|----------------------------------------|
D-|-9--7--5--4~~--3~~--2~~--3--3-3-3-3/5-5-|
A-|-------------------------3--3-3-3-3/5-5-|
D-|-------------------------3--3-3-3-3/5-5-|

3RD VERSE:
E-|---------------------------------|
A-|----7-7-7-7\5-5------------------|
G-|----7-7-7-7\5-5---5--5-5-5-5/7-7-|
D-|-0--0-0-0-0---0---3--3-3-3-3/5-5-|
A-|-0--0-0-0-0---0---3--3-3-3-3/5-5-|
D-|-0--0-0-0-0---0---3--3-3-3-3/5-5-|

CHORUS:
E-|------------------------------|
A-|------------------------------|
G-|-7--7----2--2----3--3----5--5-|
D-|-7--7----2--2-0--3--3----5--5-|
A-|-5--5----0--0--3-1--1----3--3-|
D-|-0--0-------------------------|

E-|-------------|
A-|-------------|
G-|-------------|
d-|-7-7-7-7-7-7-|
a-|-7-7-7-7-7-7-|
d-|-7-7-7-7-7-7-|


______________________________________________________________________
Track 8 - Powderfinger - Living Type

INTRO & VERSE RIFF:
E-|-----------------0------------------|
B-|-----------------0--------2---2/5-5-|
G-|----------------------3---3---3/6-6-|
D-|-------0----0h2-------4---4---4/7-7-|
A-|---2h4---4------------4---4---4/7-7-|
E-|-0--------------------0h2-2---2/5-5-|

CHORUS:
E-|---------------------------|
B-|----5--5-5-5---------------|
G-|----6--6-6-6--7-7-12\7-7-7-|
D-|-0------------7-7-12\7-7-7-|
A-|-4--4--4-4-4--5-5-10\5-5-5-|
E-|-5--5--5-5-5---------------|

BRIDGE CHORDS:
    G5  B5 
E-|---|---|
B-|---|---|
G-|---|---|
D-|-5-|-9-|
A-|-5-|-9-|
E-|-3-|-7-|

SOLO:
E-|--------------------------------------------------------|
B-|------------7------------7------------------------------|
G-|-------9p7----------9p7----------9---10-\-9-\--7---4~-\-|
D-|--7h9----------7h9----------7h9-------------------------|
A-|--------------------------------------------------------|
E-|--------------------------------------------------------|

LAST VERSE:
E-|-----------------0------------------|
B-|-----------------0--------2---2/5-5-|
G-|----------------------3---3---3/6-6-|
D-|-------0----0h2-------4---4---4/7-7-|
A-|---2h4---4------------4---4---4/7-7-|
E-|-0--------------------0h2-2---2/5-5-|

E-|-----------------0------------------|
B-|-----------------0--------2---2/3-3-|
G-|----------------------3---3---3/4-4-|
D-|-------0----0h2-------4---4---4/5-5-|
A-|---2h4---4------------4---4---4/5-5-|
E-|-0--------------------0h2-2---2/3-3-|


______________________________________________________________________
Track 9 - Powderfinger - JC

INTRO & VERSE:
E-|---------4--------|
B-|------5--4h5-4--2-|
G-|---------4---4--2-|
D-|-4/6--6--6------2-|
A-|-2/4-----4------0-|
E-|------------------|

1ST CHORUS:
E-|------------------------|
B-|--------------2-2---2-2-|
G-|-4-4---4-4----3-3---3-3-|
D-|-4-4---4-4----4-4---4-4-|
A-|-2-2---2-2----4-4---4-4-|
E-|--------------2-2---2-2-|

2ND CHORUS
E-|------------------------|---------------------------|
B-|--------------2-2---2-2-|-6-6-6-6--4-4-4-4--5-5-5-5-|
G-|-4-4---4-4----3-3---3-3-|-6-6-6-6--5-5-5-5--6-6-6-6-|
D-|-4-4---4-4----4-4---4-4-|-6-6-6-6--6-6-6-6--7-7-7-7-|
A-|-2-2---2-2----4-4---4-4-|-4-4-4-4--6-6-6-6--7-7-7-7-|
E-|--------------2-2---2-2-|----------4-4-4-4--5-5-5-5-|

BRIDGE:
E-|-------------------|
B-|-5---8-9---5-5-5-5-|
G-|-6---8-9---6-6-6-6-|
D-|-6---8-9---7-7-7-7-|
A-|-4---6-7---7-7-7-7-|
E-|-----------5-5-5-5-|

BREAK:
E-|-------------|
B-|-------------|
G-|-------------|
d-|-6-7-4-6-2-4-|
a-|-6-7-4-6-2-4-|
E-|-4-5-2-4-0-2-|

OUTRO:
E-|-------------4-|
B-|-------------5-|
G-|-------------6-|
d-|-6-7-4-6-2-4-6-|
a-|-6-7-4-6-2-4-4-|
E-|-4-5-2-4-0-2-4-|


______________________________________________________________________
Track 10 - Powderfinger - Glimpse

MAIN RIFF:
E-|-------------------|
B-|-------------------|
G-|-------------------|
D-|-5h7-------5h7-----|
A-|------7\--------7\-|
D-|------7\--------7\-|

OTHER RIFF PLAYED UNDERNEATH MAIN RIFF:
E-|----------------------------------------|
B-|----------------------------------------|
G-|----------------------------------------|
D-|-7-7-7-7-7-7-7-7-7-7-7-7-7-7-7-7--2--2~-|
A-|----------------------------------------|
D-|----------------------------------------|

______________________________________________________________________
Track 11 - Powderfinger - Take Me In

INTRO: 
E-|------------------------------------|
B-|------------------------------------|
G-|------------------------------------|
D-|------------------------------------|
A-|-4--3--2-----------4--3--2----------|
E-|----------2--1--0-----------2--1--0-|

VERSE:
G-|-----------------------|
D-|-----------------------|
A-|-----------------------|
E-|-2-2-2-2-2--1-1-1--1-0-|

CHORUS:
E-|--------------------------------|-----------------------|
B-|--------------------------------|-----------------------|
G-|-11-11-11-11-11--10-10-10--10-9-|-----------------------|
D-|-11-11-11-11-11--10-10-10--10-9-|-4-4-4-4-4--7-7-7--7/9-|
A-|-9--9--9--9--9---8--8--8---8--7-|-4-4-4-4-4--7-7-7--7/9-|
E-|--------------------------------|-2-2-2-2-2--5-5-5--5/7-|

BRIDGE:
E-|-----------------------|
B-|-----------------------|
G-|-----------------------|
D-|-4-4-4-4-4--4-4-4--4-2-|
A-|-4-4-4-4-4--4-4-4--4-2-|
E-|-2-2-2-2-2--2-2-2--2-0-|


______________________________________________________________________
Track 12 - Powderfinger -  (Return of) The Electric Horseman

INTRO:
E-|----------------------------------------------|
B-|----------------------------------------------|
G-|----------------/7-6-2------------[9]--/7-6-2-|
D-|-------7-----------------------7--[9]---------|
A-|----9------[9]--------------9-----------------|
E-|-2---------[9]-----------2--------------------|

1ST VERSE:
E-|--------------------------------------|
B-|-------------3------------------------|
G-|-----2-------2-------2-------2-/7-6-2-|
D-|-----7-----4---------7-----4----------|
A-|---9-----5---------9-----5------------|
E-|-2---------------2--------------------|

1ST CHORUS:
E-|------------|------------------------|
B-|-------3-3--|--------3-3-------------|
G-|-2-2---2-2--|--2-2---2-2-------------|
D-|-7-7---4-4--|--7-7---4-4-----------7-|
A-|-9-9---5-5--|--9-9---5-5-5p4-4-----9-|
E-|-2-2---2-2--|--2-2---5-5-------5~--2-|

BREAK:
E-|-------------------------------------------|
B-|-------------------------------------------|
G-|--------------/7-6-2-----------[9]--/7-6-2-|
D-|-------------------------------[9]---------|
A-|-7--9----[9]------------7--9---------------|
E-|-2--2----[9]----------0-2--2---------------|

2ND VERSE:
E-|--------------------------------------|
B-|-------------3------------------------|
G-|-----2-------2-------2-------2-/7-6-2-|
D-|-----7-----4---------7-----4----------|
A-|---9-----5---------9-----5------------|
E-|-2---------------2--------------------|

2ND CHORUS:
E-|------------|------------------------|
B-|-------3-3--|--------3-3-------------|
G-|-2-2---2-2--|--2-2---2-2-------------|
D-|-7-7---4-4--|--7-7---4-4-----------7-|
A-|-9-9---5-5--|--9-9---5-5-5p4-4-----9-|
E-|-2-2---2-2--|--2-2---5-5-------5~--2-|

E-|-----------------------|
B-|-------3-3-------------|
G-|-2-2---2-2-------------|
D-|-7-7---4-4-----------7-|
A-|-9-9---5-5-5p4-4-----9-|
E-|-2-2---5-5-------5~--2-|

E-|------------------------------------------------|
B-|-------3-3--------------------------------------|
G-|-2-2---2-2--------4-4-4-4--6-6-6-6--10-10-10-10-|
D-|-7-7---4-4--------4-4-4-4--6-6-6-6--10-10-10-10-|
A-|-9-9---5-5-5p4-4--2-2-2-2--4-4-4-4--8--8--8--8--|
E-|-2-2---5-5--------------------------------------|

BRIDGE:
E-|----------------------|
B-|----------------------|
G-|-2-2--4-4--11-11--7-7-|
D-|-4-4--4-4--11-11--7-7-|
A-|-4-4--2-2--9--9---5-5-|
E-|-2-2------------------|

E-|----------|
B-|----------|
G-|-2-2--4-4-|
D-|-4-4--4-4-|
A-|-4-4--2-2-|
E-|-2-2------|

3RD CHORUS:
E-|------------|------------------------|
B-|-------3-3--|--------3-3-------------|
G-|-2-2---2-2--|--2-2---2-2-------------|
D-|-7-7---4-4--|--7-7---4-4-----------7-|
A-|-9-9---5-5--|--9-9---5-5-5p4-4-----9-|
E-|-2-2---2-2--|--2-2---5-5-------5~--2-|

E-|-----------------------|
B-|-------3-3-------------|
G-|-2-2---2-2-------------|
D-|-7-7---4-4-----------7-|
A-|-9-9---5-5-5p4-4-----9-|
E-|-2-2---5-5-------5~--2-|

E-|--------|
B-|-2-2----|
G-|-7-7--4-|
D-|-4-4--4-|
A-|-9-9--2-|
E-|-2-2----|
Comments