Powderfinger - Daf Chords & Tabs

 

Daf Chords & Tabs

Powderfinger Chords & Tabs

Version: 1 Type: Tab 2 ratings
1 star 2 stars 3 stars 4 stars 5 stars
comments

Daf Tab

   
D.A.F. by Powderfinger

Transcribed by Paul Stipack (paul.stipack@hunterlink.net.au)

INTRO:
E-|--------------------|-----------|-
B-|--------------------|-----------|-
G-|-9/11-11/12\11-9-11-|-3-3-3-2-2-|-
D-|-0----0-----0--0-0--|-0-0-0-0-0-|-(x 2)
A-|--------------------|-----------|-
E-|--------------------|-----------|-

VERSE PROGRESSION:
E-|-------------|---------|-
B-|-3-3---2-2-3-|-1-1-1-1-|-
G-|-2-2---2-2-2-|-2-2-2-2-|-
D-|-0-0---2-2-2-|-3-3-3-3-|-
A-|-------0-0-0-|-3-3-3-3-|-
E-|-------------|---------|-

PRE CHORUS:
E-|--------------------|-----------|-
B-|--------------------|-----------|-
G-|-9/11-11/12\11-9-11-|-3-3-3-3-3-|-
D-|-0----0-----0--0-0--|-0-0-0-0-0-|-(x 4)
A-|--------------------|-----------|-
E-|--------------------|-----------|-
[ Tab from: http://www.guitartabs.cc/tabs/p/powderfinger/daf_tab.html ]
CHORUS
E-|----------|-------------|-
B-|------5-5-|-------------|-
G-|-7-7--6-6-|-10-10-10-10-|-
D-|-7-7--7-7-|-10-10-10-10-|-
A-|-5-5--7-7-|-8--8--8--8--|-
E-|------5-5-|-------------|-

VARIATION OF CHORUS:
E-|----------|-------------|--------------|-
B-|------5-5-|-------------|--------------|-
G-|-7-7--6-6-|-10-10-10-10-|-2-2-2-2--1-1-|-
D-|-7-7--7-7-|-10-10-10-10-|-3-3-3-3--2-2-|-
A-|-5-5--7-7-|-8--8--8--8--|-3-3-3-3--2-2-|-
E-|------5-5-|-------------|-1-1-1-1--0-0-|-

LEAD OUTRO:
E-|-----------------------------|-
B-|-15--13----------------------|-
G-|--------14--15---12-12-12-12-|-
D-|-----------------------------|-(x 4)
A-|-----------------------------|-
E-|-----------------------------|-

E-|-----------------------------|-
B-|-15--13----------------------|-
G-|--------14--15---15-15-15-15-|-
D-|-----------------------------|-(x 2)
A-|-----------------------------|-
E-|-----------------------------|-

That's mainly all of it, the song ends with the last bar of the variation
of the chorus, most of the chords in the song are D A & F, just as the
title suggests. 


paul.stipack@hunterlink.net.au
http://users.hunterlink.net.au/~ddlpp/



Comments