Powderfinger - Bless My Soul Chords & Tabs

 

Bless My Soul Chords & Tabs

Powderfinger Chords & Tabs

Version: 1 Type: Tab 0 ratings
1 star 2 stars 3 stars 4 stars 5 stars
comments

Bless My Soul Tab

Powderfinger - BLESS MY SOUL
Tabbed by David Akerman

D#|---------------------------------------------|
A#|---------------------------------------------|
G |------------------------7-8-7-8---7-8-7-8----|
D#|--7-9-7-9---7-9-7-9-----0-0-0-0---0-0-0-0----|
A |------------------------0-0-0-0---0-0-0-0----|
D#|--5-5-5-5---5-5-5-5--------------------------|

Ian

D#|--------------------0----------------------0-|
A#|--------------------0----------------------0-|
G |--------------------0----------------------0-|
D#|---------------------------------------------|
A |---------------------------------------------|
D#|---------------------------------------------|

D#|---------------------------------------------|
A#|---------------------------------------------|
G |--7-8-7-8---7-8-7-8--------7-8-7-8---7-8-7-8-|
D#|--0-0-0-0---0-0-0-0--------0-0-0-0---0-0-0-0-|
A |--0-0-0-0---0-0-0-0--------0-0-0-0---0-0-0-0-|
D#|---------------------------------------------|

D#|---------------------------------------------|
A#|---------------------------------------------|
G |---12^r-12^r-----12^r-12^r-----12^r-12^r-----|
D#|---------------------------------------------|
A |---------------------------------------------|
D#|---------------------------------------------|

-------------------------------------------------------

Artist:Powderfinger
Track:Bless My Soul
Capo 1st Fret in F

Intro & Verse
[ Tab from: http://www.guitartabs.cc/tabs/p/powderfinger/bless_my_soul_tab.html ]
e-|---x----x-x-----x----x-x--------------------------------|
B-|---3----3-3-----3----3-3------2h3--2h3-3---2h3--2h3-3---|
G-|---0----0-0-----0----0-0------2-2--2-2-2---2-2--2-2-2---|
D-|---0----0-0-----0----0-0------2-2--2-2-2---2-2--2-2-2---|
A-|-0-0--0-0-0---0-0--0-0-0------0-0--0-0-0---0-0--0-0-0---|
E-|-2h3--2h3-3---2h3--2h3-3--------------------------------|

e-|------------------------------------------------------|
B-|--3-----------------------------------2-2-2-2-2-2-2-2-|
G-|--2--------b12 half bend(repeat)------2-2-2-2-2-2-2-2-|
D-|--0-----------------------------------2-2-2-2-2-2-2-2-|
A-|--------------------------------------0-0-0-0-0-0-0-0-|
E-|------------------------------------------------------|


e-|---------------------------3-------------------------|
B-|---------------------------3-------------------------|
G-|-----1---------------------0-------------------------|
D-|-----2---------------------0-------------------------|
A-|-----2---------------------2-------------------------|
E-|-----0---------------------3-------------------------|


e-|-----2----------------------------------------------|
B-|-----3------------------------------2---------------|
G-|-----2------------------------------2---------------|
D-|-----0------------------------------2---------------|
A-|------------------------------------0---------------|
E-|----------------------------------------------------|


e-|----------------------------------------------------|
B-|-------------------2-2-2-2-2-2----------------------|
G-|-------------------2-2-2-2-2-2----------------------|
D-|-------------------2-2-2-2-2-2----------------------|
A-|-------------------0-0-0-0-0-0----------------------|
E-|----------------------------------------------------|
Comments