Powder - Up Here Chords & Tabs

 

Up Here Chords & Tabs

Powder Chords & Tabs

Version: 1 Type: Tab 0 ratings
1 star 2 stars 3 stars 4 stars 5 stars
comments

Up Here Tab

   
Tuning : Drop D (D A D G B E)

All the parts are here to play this easy (and *** good) tune.
I'm not sure of the third harmonic in the bridge so I've not
included that part. Everything else should work though. Enjoy :)

Intro
E|---------------------------------------------------------------
B|---------------------------------------------------------------
G|---------------------------------------------------------------
D|0-0---0-0---0-0-----------------0-0---0-0---0-0-------7p0------
A|0-0---0-0---0-0--5p3p0-6p5-3h5--0-0---0-0---0-0--5p3p0----6p5--
D|0-0---0-0---0-0-----------------0-0---0-0---0-0----------------

E|-------------------------------------------------------------
B|-------------------------------------------------------------
G|-----------------------------------------------5-5-10105-5-7-
D|0-0---0-0---0-0-------1p0-----0-0---0-0---0-0--x-x-x-x-x-x-x-
A|0-0---0-0---0-0--5p3p0---3h5--0-0---0-0---0-0--3-3-8-8-3-3-5-
D|0-0---0-0---0-0---------------0-0---0-0---0-0----------------


[ Tab from: http://www.guitartabs.cc/tabs/p/powder/up_here_tab.html ]
Prechorus
E|-----------------------------------------
B|-----------------------------------------
G|------------------------5555555544444444-
D|------------------------xxxxxxxxxxxxxxxx- x2
A|5h6h5~------5h6h5~------3333333322222222-
D|-------00-0--------00-0------------------

E|-----------------------------------------
B|-----------------------------------------
G|77777777666666665555555533333333---------
D|xxxxxxxxxxxxxxxxxxxxxxxxxxxxxxxx---------
A|55555555444444443333333322222222---------
D|-----------------------------------------

E|-----------------------------------------
B|-----------------------------------------
G|7--11-7-6--11-6-5--11-5-4--555555--------
D|-----------------------------------------
A|5--9--5-4--9--4-3--9--3-2--333333--------
D|-----------------------------------------
~The above is just a guide, Listen to the song for timing~

Chorus
E|-----------------------------------
B|-----------------------------------
G|------33---------------55----------
D|55----33----33----33---55----------
A|55----11----33----33---33----------
D|55----------33----33---------------

E|-------------------------------------
B|-------------------------------------
G|------33-----------------------------
D|55----33---33------------------------
A|55----11---33------------------------
D|55---------33------------------------

thanks
Comments