Powder - Need A Little Help Chords & Tabs

 

Need A Little Help Chords & Tabs

Powder Chords & Tabs

Version: 1 Type: Bass Tab 0 ratings
1 star 2 stars 3 stars 4 stars 5 stars
comments

Need A Little Help Bass Tab

   
Powder - Need a Little Help - Bass Tab

Tuning:- Low to high, D-A-D-G

Drum Intro

bass fig: 1
G|--------------------------------------|
D|--------------------------------------|
A|---------------3-5--------------------|
D|-0-3-5-0-0-3-5-----0-3-5-0-0-xx-3p0h3-|

Guitar only bit...

bass fig: 1

bass fig: 2             bass fig: 2a
G|---------------------|-----------------|
D|---------------------|-----------------| 
A|-33333333-2222222222-|-----------------|
D|---------------------|-00-0-0-0-00-0-0-|

bass fig: 2

bass fig: 3
G|--------------------|
D|--------------------|
A|-55-0-3---2---------|
D|--------5---3333333-|

bass fig: 1
bass fig: 2+2a
bass fig: 2
bass fig: 3
[ Tab from: http://www.guitartabs.cc/tabs/p/powder/need_a_little_help_btab.html ]
bass fig: 4
G|-------------------------------------|
D|-------------------------------------|
A|-------------------------------------|
D|-77777777-55555555-44444444-33333333-|

bass fig: 1

bass fig: 2 Variation
G|----------------------------|
D|----------------------------|
A|-33333333-22222222222222222-|
D|----------------------------|

eerie bit (ish)

As you come back in
G|----------------------------------------------------------|
D|----------------------------------------------------------|
A|----------------------------------------------------------|
D|-12-12-12-12-12-12-12-12-12-12-12-12-12-12-12-12-12-12-12-|
_____________Gradually fade in_______________________________

bass fig: 3 Until finish

That's about it then, fun to play, hope you'll enjoy!

Mike (m_bryant@talk21.com)
Comments