Pot Headed Hooligans - When Worlds Collide Chords & Tabs

 

When Worlds Collide Chords & Tabs

Pot Headed Hooligans Chords & Tabs

Version: 2 Type: Tab 0 ratings
1 star 2 stars 3 stars 4 stars 5 stars
comments

When Worlds Collide Tab

Artist: Pot Headed Hooligans
Song:Heat Rash II:When Worlds Collide
Album:Revolution
Tabbed by: Tom Piddock (mymateisadick@yahoo.co.uk)


Intro:
E-----------------------------------------------------
B-----------------------------------------------------
G-----------------------------------------------------
D------2-----2-------2--------2-----------------------
A--0-0---0-0---2-3-3---3--2-2---2-2-2h3p2-2-2h3p2-----
D--------------------------------------------------3p0
[ Tab from: http://www.guitartabs.cc/tabs/p/pot_headed_hooligans/when_worlds_collide_tab_ver_2.html ]
Verse:
E----------------------------------
B----------------------------------
G----------------------------------
D------2--------2-------2-------2--
A--0-0---0-2-2----2-3-3---3-2-2---2
D----------------------------------
   'I've got a heat rash...'

Chorus:
E-----------------------------------------------------------
B-----------------------------------------------------------
G-----------------------------------------------------------
D--000-222-333-555-000-222-333-555-88888888-7777-5555-3333-
A--000-222-333-555-000-222-333-555-88888888-7777-5555-3333-
D--000-222-333-555-000-222-333-555-88888888-7777-5555-3333-

D--2222-0
A--2222-0
D--2222-0


Outro:
E--h11p7-h12p7-h11p7-h12p7-h11p7-h12p7-h11p7-h12p7-7-7h9-7
B---------------------------------------------------------
G---------------------------------------------------------
Comments