Pot - Yugyugan Na Chords & Tabs

 

Yugyugan Na Chords & Tabs

Pot Chords & Tabs

Version: 1 Type: Bass Tab 0 ratings
1 star 2 stars 3 stars 4 stars 5 stars
comments

Yugyugan Na Bass Tab

Yugyugan na Bass Tabs by P.O.T

dis_bandmates@yahoo.com for *questions*
add nyo kung meron kayo friendster...
band namin yan...

Legend:
T- Slap/Thumb
P- Pop
s- Slide
h- hammer
p- pull

Intro: *wah pedal*
G|----------------------------------------------|
D|----------------------------------------------|
A|--3-3--3--3-3-3--3--3-3-3--3--3-3-3--1--2--3--|
E|----------------------------------------------|

Verse: "Sige na People..."
*Pattern 1
G|------------------------------|
D|------------------------------|
A|--3--3-3--1----------1--2--3--|
E|-------------1--1-1-----------|
[ Tab from: http://www.guitartabs.cc/tabs/p/pot/yugyugan_na_btab.html ]
*Pattern 2: "Nakarinig ka ng tugtugan..."
G|------------------------------------|
D|---------------------3h5p1----------|
A|--3--3-3--1----------------3p1------|
E|-------------1--1-1-----------------|

Pre-chorus
G|------3h5---------------3h5------3------4--|
D|---------------1h3-------------------------|
A|--3-3---------------3-3------1-1------2----|
E|-----------1-1-----------------------------|
    T.T.P    T.T.P    T.T.P    T.T.P  T.T.P

Chorus: "Yugyugan na Do it.."
G|----7h9p7-------------6----7----8--|
D|----------------7------------------|
A|--7----------------44---55---66----|
E|-----------10s5--------------------|
    T.P       T.T.P  TT.P TT.P TT.P

Then after "Do you feel it nanana"
gawin nyo to... 
G|----------------------|
D|----------------------|
A|--7-7-------5-5-------|
E|-------5---------3----|

figure out nyo nalang yung formation ng song...
Comments