Postgirobygget - Under Isen Chords & Tabs

 

Under Isen Chords & Tabs

Postgirobygget Chords & Tabs

Version: 2 Type: Tab 0 ratings
1 star 2 stars 3 stars 4 stars 5 stars
comments

Under Isen Tab

   
-----------------------------------------------------------------
UNDER ISEN - Postgirobygget
-----------------------------------------------------------------
Tabbed by: Thomas Walle	
Email: thomas_wh@hotmail.com
please mail me corrections or comments

Tuning: Standard (EADGBe)
[ Tab from: http://www.guitartabs.cc/tabs/p/postgirobygget/under_isen_tab_ver_2.html ]
e|---------------------------------------------------------------|
B|---------------------------------------------------------------|
G|-----4h6---------------6-4-------------------------------------|
D|-7-7-----6-4---4-4-6h7-----------------------------------------|  x2
A|-------------7-------------------------------------------------|
E|---------------------------------------------------------------|
					   
e|---------------------------------------------------------------|
B|---------------------------------------------------------------|
G|---------7-6---------7-6---------7-6---4------4----------------|
D|-4-4-6h7-----4-4-6h7-----4-4-6h7-----------7-----7-------------|
A|---------------------------------------------------------------|
E|---------------------------------------------------------------|



| / slide up
| \ slide down
| h hammer-on
| p pull-off
| ~ vibrato
| + harmonic
| x Mute note 
Comments