Postgirobygget - Under Isen Chords & Tabs

 

Under Isen Chords & Tabs

Postgirobygget Chords & Tabs

Version: 1 Type: Tab 0 ratings
1 star 2 stars 3 stars 4 stars 5 stars
comments

Under Isen Tab

   
By:Fontoppidan



Tuning:Standard (EADGBe)
[ Tab from: http://www.guitartabs.cc/tabs/p/postgirobygget/under_isen_tab.html ]
e|---------------------------------------------------------------|
B|-------2---------------2---------------------------------------|
G|-2-2-4---1---------1-2---4-----------play this x2,then---------|
D|-----------4-2-4-4---------------------------------------------|
A|---------------------------------------------------------------|
E|---------------------------------------------------------------|
					   let the last tone ring	
e|---------------------------------------------------------------|
B|---------3-2---------3-2--------3-2----------------------------|
G|-----1-2---------1-2--------1-2-----4--2--4--2-----------------|
D|-4-4---------4-4---------4-4-----------------------------------|
A|---------------------------------------------------------------|
E|---------------------------------------------------------------|



| / slide up
|  slide down
| h hammer-on
| p pull-off
| ~ vibrato
| + harmonic
| x Mute note 


www.stabakbandy.tk  
Sandra
Comments