Postgirobygget - Tenk Om Jeg Var Like God Live Chords & Tabs

 

Tenk Om Jeg Var Like God Live Chords & Tabs

Postgirobygget Chords & Tabs

Version: 1 Type: Bass Tab 0 ratings
1 star 2 stars 3 stars 4 stars 5 stars
comments

Tenk Om Jeg Var Like God Live Bass Tab

-------------------------------------------------------------------------------
		  Postgirobygget - Tenk om jeg var like god (Live)
-------------------------------------------------------------------------------

Album: Best Av Alt (Cd2)
Tabbed By : Harald Hveem
e-mail: ace_ventuora@hotmail.com

Tuning: EADG


Verse:
G|------------------------|
D|------------------------|
A|------------------------| 
E|--0-3-5----3----2----0--|

[ Tab from: http://www.guitartabs.cc/tabs/p/postgirobygget/tenk_om_jeg_var_like_god_live_btab.html ]
Chorous:
G|--------------------------------------------|
D|--------------------------------------------|
A|------3---------5---------3---------5-------|
E|--0-3------5---------3---------5---------3--|

G|--------------------|
D|--------------------|
A|--------------------|
E|--5----3----2----0--|


Outro:
G|----------------------------------|
D|----------------------------------|
A|----------------------------------|
E|--0-3-5---3---5---3---2---0---5~--|
                                 ~ Let ring 

Play in this order:
Verse     x2
Chorous   
Verse     x2
Chorous
Verse     x2
Chorous
Outro


Enkel og grei sang, morsom å spille. :)
Bare å ta kontakt om det skulle være noe..
===============================================================================
Comments