Postal Service - Such Great Heights Chords & Tabs

 

Such Great Heights Chords & Tabs

Postal Service Chords & Tabs

Version: 3 Type: Tab 0 ratings
1 star 2 stars 3 stars 4 stars 5 stars
comments

Such Great Heights Tab

Tabbed by: coheedandnofx6
AIM:warxall0thextime

Tuning: Standard

  BASS FOR GUITAR       ::INTRO::
G|-------------------------------------------------------------|
D|-------------------------------------------------------------|
A|-------------------------------------------------------------|
E|---1(8x)---5(8x)---3(8x)---1(16x)---5(8x)---3(16x)-----------|

  BASS FOR GUITAR      ::VERSE 1::
G|-------------------------------------------------------------|
D|-------------------------------------------------------------|
A|-------------------------------------------------------------|
E|---1(8x)---5(8x)---3(8x)---6(4x)---8(4x)---------------------|
 
 BASS FOR GUITAR      ::VERSE 2::
G|-------------------------------------------------------------|
D|-------------------------------------------------------------|
A|-------------------------------------------------------------|
E|---1(8x)---5(8x)---3(8x)---6(4x)---5(4x)---------------------|
[ Tab from: http://www.guitartabs.cc/tabs/p/postal_service/such_great_heights_tab_ver_3.html ]
  BASS FOR GUITAR     ::CHORUS::
G|----------------------------------------------------------------------|
D|----------------------------------------------------------------------|
A|----------------------------------------------------------------------|
E|---1(8x)---5(6x)-6-8---3(8x)---1(16x)---5(6x)-6-8---3(8x)---1(8x)-----|

  GUITAR                ::SOLO::
e|----------------------------------------------------------------------|
B|---6-6-6-6-6-6-6-8-6-5-5-5-5-5-5-5-5-6-5-3-3-3-3-3-3-3-3-3-3-1-1-1----|
G|----------------------------------------------------------------------|
D|----------------------------------------------------------------------|
A|----------------------------------------------------------------------|
E|----------------------------------------------------------------------|
  GUITAR  ::PLAY ONCE DURING VERSE AFTER SOLO::
e|---------------------------------------------------------------------------|
B|---1--1-1---1--1-1---1--1-1---1--1-1---5--5-5---5--5-5---3--3-3---3--3-3---|
G|---------------------------------------------------------------------------|
D|---------------------------------------------------------------------------|
A|---------------------------------------------------------------------------|
E|---------------------------------------------------------------------------|
     .  . .   .  . .   .  . .   .  . .   .  . .   .  . .   .  . .   .  . .


Yay a good tab for Such Great Heights!
Comments