Postal Service - Such Great Heights Chords & Tabs

 

Such Great Heights Chords & Tabs

Postal Service Chords & Tabs

Version: 2 Type: Bass Tab 0 ratings
1 star 2 stars 3 stars 4 stars 5 stars
comments

Such Great Heights Bass Tab

   
Title: Such Great Heights
Artist: The Postal Service
Tabbed by: chernobyl

Tuning: Drop D 
G---
D---
A---
D---


*Intro*
G----------------------------------|
D----------------------------------|
A----------------------------------|
D-3-3-3-3-3-3-3-3-3-7-7-7-7-7-7-7-7|

G----------------------------------|
D----------------------------------|
A----------------------------------|
D-5-5-5-5-5-5-5-5-5-3-3-3-3-3-3-3-3|

G-------------------| ---------------|
D-------------------| ---------------|
A-------------------| ---------------| x2
D-7-7-7-7-7-7-7-7-7-| 5-5-5-5-5-5-5-5|


*Verse*
G----------------------------------|
D----------------------------------|
A----------------------------------|
D-3-3-3-3-3-3-3-3-3-7-7-7-7-7-7-7-7|

G--------------------------------------|
D--------------------------------------|
A--------------------------------------|
D-5-5-5-5-5-5-5-5-5-8-8-8-8-10-10-10-10|

G----------------------------------|
D----------------------------------|
A----------------------------------|
D-3-3-3-3-3-3-3-3-3-7-7-7-7-7-7-7-7|
[ Tab from: http://www.guitartabs.cc/tabs/p/postal_service/such_great_heights_btab_ver_2.html ]
G----------------------------------|
D----------------------------------|
A----------------------------------|
D-5-5-5-5-5-5-5-5-5-8-8-8-8-5-5-5-5|


*Chorus*
G---------------------------------------------------|
D---------------------------------------------------|
A---------------------------------------------------|
D-3333333771010101010101212151588888888887777777777-|

-or-
  
G-------------------|
D-------------------|
A-------------------|
D-3-7-10-12-15-8-7--|


*Bridge*
G----------------------------------|
D----------------------------------|
A----------------------------------|
D-3-3-3-3-3-3-3-3-3-7-7-7-7-7-7-7-7|

G----------------------------------|
D----------------------------------|
A----------------------------------|
D-5-5-5-5-5-5-5-5-5----------------|


Intro x1
Verse x2
Chorus x2
Verse x1
Chorus x2
Bridge x4
Chorus x2
Bridge x2
Chorus x3


The entire song is synthesized bass, but playing it on Drop D almost sounds the same.
The chorus can be played as quick notes, like I tabbed, but the amount is probably wrong.
Best to just listen to the song to hear when to change notes.
Comments