Post Nuclear - Life Zux Chords & Tabs

 

Life Zux Chords & Tabs

Post Nuclear Chords & Tabs

Version: 1 Type: Tab 0 ratings
1 star 2 stars 3 stars 4 stars 5 stars
comments

Life Zux Tab

   

Artist: Post Nuclear
Song: Life Zux
Tabbed by Javier Muñoz

Tuning: E,A,D,G,B,E

Intro                             2X
------------------------------------
------------------------------------
------4-------4-------4-------4-----
----4---4---4---4---4---4---4---4---
--2-----------------------0---------
-----------2------0-----------------
[ Tab from: http://www.guitartabs.cc/tabs/p/post_nuclear/life_zux_tab.html ]
Chorus                                                2X
--------------------------------------------------------
--------------------------------------------------------
--4-4-4--4-4----------------------------5-5--4-4--4-4---
--4-4-4--4-4--2-2-2-2--2-2--5-5-5--5-5--5-5--4-4--4-4---
--2-2-2--2-2--2-2-2-2--2-2--5-5-5--5-5--3-3--2-2--2-2---
--------------0-0-0-0--0-0--3-3-3--3-3------------------

Verse                                     6X
--------------------------------------------
--------------------------------------------
--4-4-4-------------------------------------
--4-4-4--2-2-2-2-2-2--5-5-5---2-2-2-2-2-2---
--2-2-2--2-2-2-2-2-2--5-5-5---2-2-2-2-2-2---
---------0-0-0-0-0-0--3-3-3---0-0-0-0-0-0---
pm...    .........    ...     .........



I hope you like this tab, it is 100% correct
Comments