Post Modern - Untitled Chords & Tabs

 

Untitled Chords & Tabs

Post Modern Chords & Tabs

Version: 1 Type: Tab 1 rating
1 star 2 stars 3 stars 4 stars 5 stars
comments

Untitled Tab

   
Band: Post Modern
Song: Untitled
Website: www.postmodernmusic.nl

sum chords used in the song:

D	Am7	C	Gm7
-x-	-x-	-x-	-x-
-7-	-5-	-5-	-3-
-7-	-5-	-5-	-3-
-7-	-5-	-5-	-3-
-5-	-x-	-3-	-x-
-x-	-5-	-x-	-3-

Intro

-------2------|--------------|-------5------|--------------|
----------3---|-------5--6---|----------5---|-------0------|
-----4------4-|-----7------7-|-----5------5-|----------4---|
---4----------|---7----------|---5----------|-----5------5-|
-2------------|-5------------|--------------|---5----------|
--------------|--------------|-5------------|-0------------|


-----2--5p2---|-----5--8p5---|-5------------|--------------|
---3----------|---6--------6-|---5----------|-------0------|
-4-----------4|s7------------|-----5--------|----------4---|
--------------|--------------|-------7--5h7-|-----5------5-|
--------------|--------------|--------------|---5----------|
--------------|--------------|--------------|-0------------|

Verse:

D		Am7		C		Gm7	Am7
D		Am7		C		Gm7	C

fokkin rockin chorus:
[ Tab from: http://www.guitartabs.cc/tabs/p/post_modern/untitled_tab.html ]
Em	    Am		Em	    Am		      B    C#   D
-----------|-----------|-7-7-7-7-7-|-12-12-12-12-12-|-------------|
-----------|-----------|-7h8-8-8-8-|-12h13-13-13-13-|-------------|
-7s9-9-9-9-|-----------|-7h9-9-9-9-|-12h14-14-14-14-|-4----6----7-|
-7s9-9-9-9-|-5s7-7-7-7-|-7h9-9-9-9-|-12h14-14-14-14-|-4----6----7-|
-5s7-7-7-7-|-5s7-7-7-7-|-7-7-7-7-7-|-12-12-12-12-12-|-2----4----5-|
-----------|-3s5-5-5-5-|-----------|----------------|-------------|

Solo:

D	   Am7	      C	      Gm7 C	 D		Am7	    C		     Gm7       C
---------------------------------------|------------7-9-10--12--14--15p14p12----------------------|
-8p7p5---------------------------------|-----7-8-10--------------------------15--14---------------|
-------7-6-5---5---5--4---5---7---9----|-7-9-----------------------------------------14--11-11h12-|
-------------7---7------5---7---9---10-|----------------------------------------------------------|
---------------------------------------|----------------------------------------------------------|
---------------------------------------|----------------------------------------------------------|

D				   Am7		   C		Gm7  C
-------------------------------------------8p5---|---------------------|
-15p14p12-14p12p10-12p10p8-10p8p7--8p5---------8-|-----7--------3----5-|
---------------------------------------7p5-------|-7/9---9/7-5--3----5-|
-------------------------------------------------|--------------3----5-|
-------------------------------------------------|---------------------|
-------------------------------------------------|---------------------|

D	  Am7	   C	    Gm7    C
-----------------------------------------|
---7-8p7----5-6p5----5-6p5------3------5-|
-------------------5----------3------5---|
-7--------5-----------------3------5-----|
-----------------------------------------|
-----------------------------------------|

And then the fokkin rockin chorus again.
Comments