Possessed - Satans Curse Chords & Tabs

 

Satans Curse Chords & Tabs

Possessed Chords & Tabs

Version: 2 Type: Bass Tab 0 ratings
1 star 2 stars 3 stars 4 stars 5 stars
comments

Satans Curse Bass Tab

SONG:   SATAN?S CURSE
BAND:   POSSESSED
ALBUM:  SEVEN CHURCHES

          :::
          :::
          :::
       :::::::::
       :::::::::
          :::
         6 6 6

Intro
----------------------------------|
----------------------------------|
----------------------------------|
-1---4---3----7----1----4----3----|

Verse
--------------------|
--------------------|
--------------------|
-1111444433337777---|

Chorus
--------------------------------|
--------------------------------|
-7---6---7---6---7---6---7---6--|
---8---7---8---7---8---7---8----|
[ Tab from: http://www.guitartabs.cc/tabs/p/possessed/satans_curse_btab_ver_2.html ]
Bridge 1
------------------------------------|
------------------------------------|
---------333333332222222233333333---|
-11111111---------------------------|

Bridge 2
--------------------------------|
--------------------------------|
---------3333333377777776666666-|
-11111111-----------------------|

End
------------------------------------|
------------------------------------|
---------33333333777777771111111-7--|
-11111111------------------------0--|

Intro     1
Verse     6
Chorus    1
Verse     8
Chorus    1
Bridge 1  10
Bridge 2  4
Bridge 1  4
Chorus    1
Verse     8
Chorus    1
Bridge 1  4
End       1

/metal_up_your_ass@2die4.com
Comments