Portrait - How Deep Is Your Love Chords & Tabs

 

How Deep Is Your Love Chords & Tabs

Portrait Chords & Tabs

Version: 2 Type: Tab 0 ratings
1 star 2 stars 3 stars 4 stars 5 stars
comments

How Deep Is Your Love Tab

   
#----------------------------------PLEASE NOTE---------------------------------#
#This file is the author's own work and represents their interpretation of the #
#song. You may only use this file for private study, scholarship, or research. #
#------------------------------------------------------------------------------##
From: ArisEC@aol.com
Date: Fri, 21 Jul 1995 07:45:14 -0400

      HOW DEEP IS YOUR LOVE

             -as performed by Portrait
             -transcribed by Aris Samad (arisec@aol.com)

NOTES:
  This song was originally performed by Bee Gees.  This
is my transcription of Portrait's version.  It's made up
of mostly bar chords.  It sounds pretty accurate, though
I had trouble figuring out some of the chords.
  To make it sound more like the album, tap the strings
with your palm on the 3rd beat of every bar.
  I would greatly appreciate any corrections and comments!


INTRO:

E       E add F#        Asus2   A/B
E       E add F#        Asus2   A/B

Lyrics start...

               E            G#m          F#m
e:------------|------------|------------|------------|
B:------------|0--0--------|4--4--------|2--2--------|
G:------------|1--1--------|4--4--------|2--2--------|
D:------------|2--2--------|6--6--------|4--4--------|
A:------------|------------|------------|---------4--|
E:------------|0--------4--|---------2--|------------|
  I know your eyes in the morning sun

  C#m          F#m          Amaj7        A/B
e:------------|------------|4--4--------|0--0-----0--|
B:5--5--------|2--2--------|5--5--------|2--2-----2--|
G:6--6--------|2--2--------|6--6--------|2--2-----2--|
D:6--6--------|4--4-----7--|------------|------------|
A:------------|------------|---------2--|---------2--|
E:---------2--|------------|------------|------------|
  I feel you touch me in the pouring rain

               E            G#m          C#m
e:---0--0-----|------------|------------|------------|
B:---2--2-----|0--0--------|4--4--------|5--4--5--4--|
G:---2--2-----|1--1--------|4--4--------|6-----------|
D:------------|2--2--------|6--6--------|6-----------|
A:------------|------------|---------4--|------------|
E:------------|0--0-----4--|------------|------------|
       And the moment that you wander far from me

               F#m                       A/B
e:------------|------------|------------|0--------5--|
B:---5--------|2--2--------|2--2--------|2-----------|
G:------------|2--2--------|2--2--------|2-----------|
D:------------|4--4--------|4--4--------|------------|
A:------------|------------|------------|2-----------|
E:---------2--|---------2--|------------|------------|
       I wanna feel you in my arms again

               Asus2                     G#m
e:------------|---------0--|------------|------------|
B:------------|0-----------|------------|4--4--------|
G:------------|2-----------|------------|4--4--------|
D:------------|2-----------|------------|6--6--------|
A:------------|0-----------|------------|------------|
E:------------|------------|------------|4--------4--|
       And you come   to   me   on  a    summer breeze

               F#m                       A/D
e:------------|------------|------------|---0-----0--|
B:4--4--------|2--2--------|2--2--------|2--2--2--2--|
G:4--4--------|2--2--------|2--2--------|2----(2)----|
D:6--6--------|4--4--------|4--4--------|0-----------|
A:------------|------------|------------|------------|
E:---------2--|---------2--|------------|------------|
       keep me warm with your love, then you softly
[ Tab from: http://www.guitartabs.cc/tabs/p/portrait/how_deep_is_your_love_tab_ver_2.html ]
               G#m                       A/B
e:------------|------------|------------|---0--0-----|
B:---2--------|4--4--------|4--4--------|---2--2-----|
G:------------|4--4--------|4--4--------|---2--2-----|
D:------------|6--6--------|6--6--------|------------|
A:------------|------------|------------|---2--2-----|
E:------------|4--------4--|------------|------------|
  leave..And it's me you need to show

               E                         E add F#
e:---0--0-----|---------4--|------4-----|2--------2--|
B:---2--2-----|0-----------|0--------0--|0--0--------|
G:---2--2-----|1--1--------|---1--------|1-----1-----|
D:------------|------2-----|------------|------------|
A:---2--2-----|------------|------------|------------|
E:------------|0-----------|------------|0-----------|
   How deep is your love(how deep is your love, how

               A                         Am
e:------2-----|------------|------------|2--0--2-----|
B:0--------0--|0--2--0--2--|---2--------|1-----1--1--|
G:---1--------|2-----------|------2-----|2--------2--|
D:------------|------------|------------|------------|
A:------------|0-----------|------------|0-----------|
E:------------|------------|------------|------------|
  deep is your love),      I really mean to learn...

               E                         Bm/D
e:---2--2-----|------------|------------|2--2--------|
B:------------|0--0--------|0--0--------|3--3--------|
G:------------|1--1--------|1--1--------|4--4--------|
D:------------|2--2--------|2--2-----0--|---------0--|
A:------------|------------|------------|------------|
E:------------|0--------0--|------------|------------|
  Cause we're living in a world of fools

               C#7
e:2--2--------|1--1--------|------------|------------|
B:3--3--------|2--2--------|2--------3--|---------2--|
G:4--4--------|4--4--------|4-----4-----|------4-----|
D:------------|------------|------------|------------|
A:---------4--|---------4--|------------|------------|
E:------------|------------|------------|------------|
  breaking us down             When they all should let

               F#m                       Am
e:------------|------------|------------|------------|
B:------------|2--2--------|2--2--------|1--1--------|
G:---4--------|2--2--------|2--2--------|2--2--------|
D:------------|4--4--------|4--4--------|2--2--------|
A:------------|------------|---------0--|------------|
E:---------2--|---------2--|------------|------------|
  us be                             We belong to you and

               E......(repeat from start)
e:------------|----------------------------|
B:1-----1-----|----------------------------|
G:2-----2-----|----------------------------|
D:2-----2-----|----------------------------|
A:0-----------|----------------------------|
E:------------|----------------------------|
  me...

Here are the complete lyrics:

I know your eyes in the morning sun
I feel you touch me in the pouring rain
And the moment that you wander far from me
I wanna feel you in my arms again

And you come to me on a summer breeze
Keep me warm with your love then you softly leave
And it's me you need to show
How deep is your love

[chorus]
(How deep is your love)
(How deep is your love)
I really mean to learn
Cause we're living in a world of fools
Breaking us down
When they all should let us be
We belong to you and me

I believe in you
You know the door to my very soul
You're the light in my deepest, darkest hour
You're my saviour when I fall

And you may not think that I care for you
But you know deep inside that I really do
And it's me you need to show
How deep is your love

[chorus]
(How deep is your love)
(How deep is your love)
I really mean to learn
Cause we're living in a world of fools
Breaking us down
When they all should let us be
We belong to you and me

I believe in you...


-----------------------------------------------
   Aris Samad    -   arisec@aol.com
-----------------------------------------------
Comments