Portishead - Roads Chords & Tabs

 

Roads Chords & Tabs

Portishead Chords & Tabs

Version: 1 Type: Tab 0 ratings
1 star 2 stars 3 stars 4 stars 5 stars
comments

Roads Tab

Portished (Sultan and the greek remix)
Roads
Submited by: Catarinavfernandes@hotmail.com
~ --->  let ring
b --->  full bending
/ --->  slide
p --->  short pause


e--|--------------------------------------------------------------------|
B--|--------------------------------------------------------------------|
G--|--------------------------------------------------------------------|
D--|---------------------------11-----11--------------------------------|
A--|---~11~---------~14~----------14-----~13~----11--13--14--13--~11~---|
E--|--------------------------------------------------------------------|

e--|--------------------------------------------------------------------|
B--|--------------------------------------------------------------------|
G--|--------------------------------------------------------------------|
D--|-------------------~11~---------------------------------------------|
A--|---11--13--14--13---------------------------------------------------|
E--|--------------------------------------------------------------------|

e--|--------------------------------------------------------------------|
B--|--------------------------------------------------------------------|
G--|--------------------------------------------------------------------|
D--|---------------------------b14----11-----11-------------------------|
A--|---~11~---------~14~------------------14-----~13~-------------------|
E--|--------------------------------------------------------------------|

e--|--------------------------------------------------------------------|
B--|--------------------------------------------------------------------|
G--|--------------------------------------------------------------------|
D--|--------------------------------------------~11~--------------------|
A--|---11--13--14--13--~11~-----11--13--14--13--------14--13--14--~13~--|
E--|--------------------------------------------------------------------|
[ Tab from: http://www.guitartabs.cc/tabs/p/portishead/roads_tab.html ]
e--|-----------------------------------------------------------------------|
B--|-----------------------------------------------------------------------|
G--|-----------------------------------------------------------------------|
D--|---11/~13~----11------11/~13~-----11--------~11~-----------------------|
A--|------------------14-------------------14---------------14---~13~------|
E--|-----------------------------------------------------------------------|

e--|-----------------------------------------------------------------------|
B--|-----------------------------------------------------------------------|
G--|-----------------------------------------------------------------------|
D--|-----------11---11/~13~-----14--16--~13~------14--16--~11~-------------|
A--|---13--14---------------------------------------------------14----~13~-|
E--|-----------------------------------------------------------------------|

e--|-----------------------------------------------------------------------|
B--|-----------------------------------------------------------------------|
G--|-------------------------------------------11------11--13--11--13--16--|
D--|-----------11--13--11------11--13--11--13------13----------------------|
A--|---13--14--------------14----------------------------------------------|
E--|-----------------------------------------------------------------------|

e--|------------------------------------------------------------------------|
B--|------------------------------------------------------------------------|
G--|---13--18--13--16--13--15-p-13--15--13--16--13--18--13--16--13--15-p-13-|
D--|------------------------------------------------------------------------|
A--|------------------------------------------------------------------------|
E--|------------------------------------------------------------------------|

               That goes on like that. When the lyrics begin the guitar is the same, the 
different thing is that the bending in now on the begining of the song and there is no 
after. have fun! any questions catarinavfernandes@hotmail.com
Comments