Portishead - Roads Chords & Tabs

 

Roads Chords & Tabs

Portishead Chords & Tabs

Version: 1 Type: Bass Tab 0 ratings
1 star 2 stars 3 stars 4 stars 5 stars
comments

Roads Bass Tab

Artist: Portishead
Song  : Roads
Album : Dummy
Tab by: Marco F. mongo@zhol.ch

BASS SOLO (starts at 3:20)

G ||---------------------------------|
D ||---------------14-12-------------|
A ||------------------------15-12----|
E ||------------------------------15-|

G ||---------------------------------|----------------------------------|
D ||---------------------------------|----------------------------------|
A ||-12----12---12-12-12-------14h15-|----------------------------14h15-|
E ||---------------------------------|-15----15---15-15-15--------------|
[ Tab from: http://www.guitartabs.cc/tabs/p/portishead/roads_btab.html ]
G ||---------------------------------|----------------------------------|
D ||---------------------------------|----------------------------------|
A ||-------------------------15------|----------------------------------|
E ||-13----13---13-13-13-------------|-12----12----13-12---13-12--------|

G ||---------------------------------|----------------------------------|
D ||---------------------------------|----------------------------------|
A ||-12----12---12-12-12-------------|------------------------------15/-|
E ||---------------------------------|-15----15---15-15-15--------------|

G ||---------------------------------|-----------------------------------||
D ||---------------------------------|-14---------12-14-12----12-14-12---||
A ||-20----20---20-20-20-------14h15-|----------------------15--------15-||
E ||---------------------------------|-----------------------------------||

The bass part during the rest of the song (before and after the solo) is
very simple: Just throw in some root notes and let them ring!

Comments