Portishead - Airbus Reconstruction Chords & Tabs

 

Airbus Reconstruction Chords & Tabs

Portishead Chords & Tabs

Version: 1 Type: Tab 0 ratings
1 star 2 stars 3 stars 4 stars 5 stars
comments

Airbus Reconstruction Tab

   
Portishead
Airbus Reconstruction (Glory Times disc 1)
Tabbed by Romain Bessuges (quasar2k@tiscali.fr)


1.                          2.                             
e:--------------------------|--------------------------|
B:--------------------------|--------------------------|
G:--------------------------|--------------------------|
D:------2---4---4-------2---|------2---4---4-------2---|
A:----2---2---2---2---1-----|----2---2---2---2---1-----|
E:--0---------------2-------|--0---------------2-------|

1.                          2.                             
e:--------------------------|--------------------------|
B:--------------------------|--------------------------|
G:--------------------------|--------------------------|
D:------2---4---4-------2---|------2---4---4-------2---|
A:----2---2---2---2---1-----|----2---2---2---2---1-----|
E:--0---------------2-------|--0---------------2-------|

1.                          2.                             
e:--------------------------|--------------------------|
B:------------4-------------|------------4-------------|
G:--------6-----6---------6-|--------6-----6---------6-|
D:-----6----6-----6-----5---|-----6----6-----6-----5---|
A:--4---------------4-6-----|--4---------------4-6-----|
E:--------------------------|--------------------------|
[ Tab from: http://www.guitartabs.cc/tabs/p/portishead/airbus_reconstruction_tab.html ]
1.                          2.                             
e:----0---0---2---0---4-4---|----0---0---2---0---4-4---|
B:--2---2---2---2---2-------|--2---2---2---2---2-------|
G:--------------------------|--------------------------|
D:--------------------------|--------------------------|
A:--------------------------|--------------------------|
E:--------------------------|--------------------------|

1.                                  2.                             
e:----------------------------------|------------------------------------|
B:--2-----2-----2---1-----0-----1---|-2-----2-----2---1-----0-----1------|
G:----1-1---1-1---1---1-1---1-1---1-|---1-1---1-1---1---1-1---1-1---1----|
D:----------------------------------|------------------------------------|
A:----------------------------------|------------------------------------|
E:----------------------------------|------------------------------------|

1.                          2.
e:----0---0---2---0---4-4---|----0---0---2---0---4-4---|
B:--2---2---2---2---2-------|--2---2---2---2---2-------|
G:--------------------------|--------------------------|
D:--------------------------|--------------------------|
A:--------------------------|--------------------------|
E:--------------------------|--------------------------|

1.                          2.           A   C#m  F#5
e:----0---0---2---0---4-4---|----0---0---2---0---4-4---|
B:--2---2---2---2---2-------|--2---2---2---2---2-------|
G:--------------------------|--------------------------|
D:--------------------------|--------------------------|
A:--------------------------|--------------------------|
E:--------------------------|--------------------------|

Comments