Porno Riviste - La Scatola Dellodio Chords & Tabs

 

La Scatola Dellodio Chords & Tabs

Porno Riviste Chords & Tabs

Version: 1 Type: Tab 0 ratings
1 star 2 stars 3 stars 4 stars 5 stars
comments

La Scatola Dellodio Tab

LA SCATOLA DELL'ODIO GUITAR TAB
TABBED BY Brainkri20p

VERSE:

Che cosa pensi alle 7 del mattino       stai bene in piedi e vedi a stento il tuo vicino...
E----------------------------------------------------------------------------------------------|
B----------------------------------------------------------------------------------------------|
G-------------------------------------------9---9---9---9---9---9---9---7---7---7---7---7---7--|
D--7---7---7---7---7---7---7---7--------9---9---9---9---9---9---9---7---7---7---7---7---7------|
A--7---7---7---7---7---7---7---7--------7---7---7---7---7---7---7---5---5---5---5---5---5------|
E--5---5---5---5---5---5---5---5---------------------------------------------------------------|


PRE CHORUS:
E----------------------------------------------------------------------------------------|
B----------------------------------------------------------------------------------------|
G-------6---7---6---7---9----------------------------------------------------------------|
D--7---6---7---6---7---9-----------------------------------------------------------------|
A--7---4---5---4---5---7-----------------------------------------------------------------|
E--5-------------------------------------------------------------------------------------|


CHORUS:
Qualcosa mi tocca lo sento lontano          non sono gia vecchio ti tengo la mano
C'è un'angolo buio la scatola chiusa        ti aspetto di sotto 6 scesa già fusa,no!
E-----------------------------------------------------------------------------------------|
B-----------------------------------------------------------------------------------------|
G-----------------------6--6--6--6--6--6--6-----------------------7--7--7--9--9--9--9--9--|
D--7--7--7--7--7--7--6--6--6--6--6--6--6--4--4--4--4--4--4--7--7--7--9--9--9--9--9--------|
A--7--7--7--7--7--7--4--4--4--4--4--4--4--4--4--4--4--4--4--5--5--5--7--7--7--7--7--------|
E--5--5--5--5--5--5---------------------------2--2--2--2--2--2----------------------------|
[ Tab from: http://www.guitartabs.cc/tabs/p/porno_riviste/la_scatola_dellodio_tab.html ]
Questo riff va suonato anche nella parte immediatamente dopo il chorus

VERSE
PRE CHORUS

SOLO:
E--------------------------------------------------------------------------------------|
B--------------------------------------------------------------------------------------|
G-----9-7---6---4---6------------7-------7------6--------------------------------------|
D------------------------X3--------7-------9---------9---------------------------------|
A--7-----------------------------------------------------------------------------------|
E--------------------------------------------------------------------------------------|

E--------------------------------------------------------------------------------------|
B--------------------------------------------------------------------------------------|
G-----9-7---6---4---6------------7------6-----------9----------------------------------|
D------------------------X3--------7------------9------7-------------------------------|
A--7-----------------------------------------------------------------------------------|
E--------------------------------------------------------------------------------------|


LA SECONDA CHITARRA SUONA CHORUS X2 E  PRE CHORUS X2

BRIDGE 1:

Quante volte non ce la faccio più...
E-------------------------------------------|
B-------------------------------------------|
G--9----------------------------------------|
D--9----------------------------------------|
A--7----------------------------------------|
E-------------------------------------------|

VERSE

BRIDGE:
E-------------------------------------------------------------------------|
B-------------------------------------------------------------------------|
G-------------------------7-7---7---9-9---9-------------------------------|
D--7-7---7---7-7---7---7-7---7---9-9---9----X2----------------------------|
A--7-7---7---7-7---7---5-5---5---7-7---7----------------------------------|
E--5-5---5---5-5---5------------------------------------------------------|

QUESTO RIFF VA TENUTO ANCHE NELL'ULTIMO VERSE per la prima chitarra mentre la seconda suona il verse
Comments