Porno For Pyros - Porpoise Head Chords & Tabs

 

Porpoise Head Chords & Tabs

Porno For Pyros Chords & Tabs

Version: 3 Type: Tab 0 ratings
1 star 2 stars 3 stars 4 stars 5 stars
comments

Porpoise Head Tab

   
Porno For Pyros- Porpoise head


e|-------------|
B|----1--------|
G|-2-----2--1--|
D|--3--3--3---1|  Repeat 12 times
A|-------------|
E|---1--1--1---|

e|---------------------------------|
B|----3-----------------5----------|
G|---1-1-----4---------3-3-----5---|
D|--3---3---3-3-------5---5---4-4--|
A|-1-------5---5-----3-------6---6-|
E|--------3-----------------4------|

  Here I go dive away, Watch me dive away

e|-------------|
B|----1--------|
G|-2-----2--1--|
D|--3--3--3---1|  Repeat 2 times
A|-------------|
E|---1--1--1---|

  Hey porpoise head
  oh porpoise head
   
     ^	  ^    ^    ^
e|-6666-6666-6666-6666-|
B|-6666-6666-6666-6666-|
G|-6666-6666-6666-6666-|
D|---------------------|
A|---------------------|
E|---------------------|

e|-------------|
B|----1--------|
G|-2-----2--1--|
D|--3--3--3---1|  Repeat 4 times
A|-------------|
E|---1--1--1---|

e|---------------------------------|
B|----3-----------------5----------|
G|---1-1-----4---------3-3-----5---|
D|--3---3---3-3-------5---5---4-4--|
A|-1-------5---5-----3-------6---6-|
E|--------3-----------------4------|

   Here I go dive away, Watch me dive away

e|-------------|
B|----1--------|
G|-2-----2--1--|
D|--3--3--3---1|  Repeat 2 times
A|-------------|
E|---1--1--1---|

  Hey porpoise head
  oh porpoise head
[ Tab from: http://www.guitartabs.cc/tabs/p/porno_for_pyros/porpoise_head_tab_ver_3.html ]
     ^    ^    ^    ^
e|-6666-6666-7777-7777-|
B|-6666-6666-7777-7777-|
G|-6666-6666-6666-6666-|repeat 4 times
D|---------------------|
A|---------------------|
E|---------------------|
                       
     ^    ^    ^    ^    ^    ^    ^    ^
e|-6666-6666-7777-7777-6666-6666-7777-6444-|
B|-6666-6666-7777-7777-6666-6666-7777-7666-|
G|-6666-6666-6666-6666-6666-6666-6666-6666-|
D|-----------------------------------------|
A|-----------------------------------------|
E|-----------------------------------------|

   I set sail with a tickle in my tail

     ^    ^    ^    ^
e|-3333-3333-3333-3333-------4----4-----4--|
B|-4444-4444-4444-4444-------5----5-----5--|
G|-3333-3333-3333-3333-------4----4-----4--|
D|-----------------------------------------|
A|-----------------------------------------|
E|-----------------------------------------|

   I smell the bleach on the thin white sheets...

e|-------------|
B|----1--------|
G|-2-----2--1--|
D|--3--3--3---1|  Repeat 8 times
A|-------------|
E|---1--1--1---|

e|---------------------------------|
B|----3-----------------5----------|
G|---1-1-----4---------3-3-----5---|
D|--3---3---3-3-------5---5---4-4--|
A|-1-------5---5-----3-------6---6-|
E|--------3-----------------4------|

   Here I go dive away, Watch me dive away

e|-------------|
B|----1--------|
G|-2-----2--1--|
D|--3--3--3---1|  Repeat 11 times or however long you want...
A|-------------|
E|---1--1--1---|

Hey porpoise head
oh porpoise head
Hey porpoise head
oh porpoise head.................

|Key|

^ - upstroke


Thank you -  Eric Sutton at Jah_rising@yahoo.com









Comments