Porno For Pyros - Pets Chords & Tabs

 

Pets Chords & Tabs

Porno For Pyros Chords & Tabs

Version: 1 Type: Bass Tab 0 ratings
1 star 2 stars 3 stars 4 stars 5 stars
comments

Pets Bass Tab

Pets
Porno For Pyros
Porno For Pyros
Tabbed By Larry

~ ==>	Extend note time
T ==> 	Thumb tap
NOTE ==>Each BLOCK ( |--X--| ), no matter how long it is, represents 4 
times.

	*INTRO (Play 2 times)

G:|-------|-------|-------|-------|
D:|-------|-------|-------|-------|
A:|-------|-------|-------|-------|
E:|-12~~~-|-12~~~-|-14~~~-|-10~~~-|
    T	     T	     T       T

	*WHOLE SONG (Repeat this with some variations)
[ Tab from: http://www.guitartabs.cc/tabs/p/porno_for_pyros/pets_btab.html ]
G:|-------------|-------------|----------------|----------------|
D:|-------------|-------------|----------------|----------------|
A:|-9--9--------|-9--9--------|-11--11----11---|----------------|
E:|-------5-7-9-|-------5-7-9-|---------9----9-|-12--12---5-7-9-|

	You will catch the rythm easily...

	**BASIC VARIATION (I've got this from a live performance)

G:|-------------|-------------|-----------------|------------------|
D:|-------------|-------------|--------9-8------|----9-9h11h9-8----|
A:|-9--9--------|-9--9--------|-11--11-----11-9-|-7-------------11-|
E:|-------5-7-9-|-------5-7-9-|-----------------|------------------|

That's it.. this is a very beautyful song, you'll really enjoy playing it..
Contact to rhimorse@hotmail.com

AMOR Y PAZ

Comments