Porno For Pyros - Orgasm Chords & Tabs

 

Orgasm Chords & Tabs

Porno For Pyros Chords & Tabs

Version: 2 Type: Bass Tab 0 ratings
1 star 2 stars 3 stars 4 stars 5 stars
comments

Orgasm Bass Tab

Orgasm
by Porno for Pyros
Self Titled CD
Tabbed by Sam Buchta (mereel@hotmail.com)



Main Riff, Alternate between the variations (he sometimes plays one 
variation two times
in a row, just play whatever you feel like)
G|----------------------------------------|
D|----------------------------------------|
A|---7h9-7-------7h9-7---9----7h9-7-------|
E|-2-------9---2-------9----2-------9-0-2-|

Little ending part
G|-------------|
D|-------------|
A|-----7-------|
E|-7h9---7h9-0-|

[ Tab from: http://www.guitartabs.cc/tabs/p/porno_for_pyros/orgasm_btab_ver_2.html ]
Variation at 3:04
G|-------------------------------------------------------|
D|-------------9-8---------------------------------------|
A|---7h9-7---7-----9-----9----7h9-7-------7------7-----7-|
E|-2-------9---------2--9---2-------7h9-9----7h9---7h9---|


End of song variation
G|-----------------------------|
D|-----------------------------|
A|---7h9-7-----7-9-----7-------|
E|-2-------7h9-----7h9---7h9-0-|


That's pretty much it, there's a couple little variations in the main riff 
that are pretty
much just rearranging the notes slightly so I won't bother putting those in.
You could play it using the D string and you don't have to move your hand as 
far, but
i thought playing it on the A gave it a more full sound, but it's whatever 
you like.
Comments