Pork Chop - Little Ditty Chords & Tabs

 

Little Ditty Chords & Tabs

Pork Chop Chords & Tabs

Version: 1 Type: Tab 0 ratings
1 star 2 stars 3 stars 4 stars 5 stars
comments

Little Ditty Tab

#----------------------------------PLEASE NOTE---------------------------------#
#This file is the author's own work and represents their interpretation of the #
#song. You may only use this file for private study, scholarship, or research. #
#------------------------------------------------------------------------------##
From: ram@mbisgi.umd.edu (Ram Samudrala)
Subject: TAB: Pork Chop's Little Ditty (in tab form)

This is how I play it---I'm only a mediocre guitar player; I think all
the necessary notes are there though.  It's actually much more
intricate than how I'd play it, but even if I figured out the notes,
I'm not fast enough to play like that.  The first part is actually
some sort of sliding combined with playing two notes---you can slide
14/12 on the B string to get the same sort of sound (it'd be 10/12 12
10 on the B string if you play it that way then).  Let me know if you
build on it!

E -------------------------------------------------------------------
A -------------------------------------------------------------------
D -------------------------------------------------------------------
G --14-14-14---------------14-14-14--------------14-14-14------------
B --12-12-12--------12-10--12-12-12-------12-10--12-12-12-----12-10--
E ------------12-10-----------------12-10---------------12-10--------
[ Tab from: http://www.guitartabs.cc/tabs/p/pork_chop/little_ditty_tab.html ]
E -------------------------------------------------------------------
A -------------------------------------------------------------------
D -------------------------------------------------------------------
G -----------12------------------------------------------------------
B -----12-10---------------------------------------------------------
E --10---------------------------------------------------------------

E -------------------------------------------------------------------
A -------------------------------------------------------------------
D -------------------------------------------------------------------
G -------------------------------------------------------------------
B -----------------12----------12------------------12----------12----
E --15-15-15-12-10----10-12-10-15---15-15-15-12-10----------------10-

E -------------------------------------------------------------------
A -------------------------------------------------------------------
D -------------------------------------------------------------------
G --------------------------------------------------12---------------
B -----------------12----------12-------------12-10------------------
E --15-15-15-12-10----10-12-10-15----15-12-10-------------15-15-15---


--Ram

Ram Samudrala
ram@elan1.carb.nist.gov       When the going gets tough and the stomach
       acids flow. The cold wind of conformity is nipping at your nose.
                     Some trendy new atrocity brings you to your knees. 
              Come with us and we'll sail the seas of cheese. ---Primus

ram@elan1.carb.nist.gov       When the going gets tough and the stomach
       acids flow. The cold wind of conformity is nipping at your nose.
                     Some trendy new atrocity brings you to your knees. 
              Come with us and we'll sail the seas of cheese. ---Primus

Comments