Porcupine Tree - Shallow Chords & Tabs

 

Shallow Chords & Tabs

Porcupine Tree Chords & Tabs

Version: 1 Type: Bass Tab

Shallow Bass Tab

   
----------------------------------------------------------------------------
			     SHALLOW - Porcupine Tree
----------------------------------------------------------------------------

Tabbed By :Nordik-RooT-AGGELOS PERGATIS 
e-mail: 

Tuning:EU 6939542758 GREECE-SPARTA

INTRO: only guitar .

COUPLE                            -4 TIMES-

G|-------------------------------------------------------------------------|
D|-------------------------------------------------------------------------|
A|-------------5-------------------------5---------------------------------|
D|10-SLIDE-3-5---0-3-5-0----10-SLIDE-3-5---0-3-5-0-X-0---------------------|

G|-------------------------------------------------------------------------|
D|-------------------------------------------------------------------------|
A|-------------5---------------------------5-------------------------------|
D|10-SLIDE-3-5---0-3-5-0-0----10-SLIDE-3-5---0-3-5--0-0--------------------|

BRIDGE A                         -2 TIMES-

G|-------------------------------------------------------------------------|
D|-------------------------------------------------------------------------|
A|3--3-3-SLIDE-5-5-5-5-5-5-SLIDE-8-8-10-10-SLIDE-5-------------------------|
D|-------------------------------------------------------------------------|
[ Tab from: http://www.guitartabs.cc/tabs/p/porcupine_tree/shallow_btab.html ]
G|-------------------------------------------------------------------------|
D|-------------------------------------------------------------------------|
A|3--2-3-SLIDE-5-5-SLIDE-8-8-10-10-SLIDE-12-SLIDE-5------------------------|
D|-------------------------------------------------------------------------|

REFREN                         -2 TIMES-

G|-------------------------------------------------------------------------|
D|-------------------------------------------------------------------------|
A|-------------------------------------------------------------------------|
D|3-0-0-3-0-0-3-0-0-3-0-0-3-5--3-0--0-0---0-0-0-0--------------------------|

G|-------------------------------------------------------------------------|
D|-------------------------------------------------------------------------|
A|---------------------------------3---------------------------------------|
D|12-10-9-3-3-5--3-0--0-0--0-3-4-5--5-4-3----------------------------------|

AFTER THE 2ND COUPLE and REFREN THERE IS THE BRIDGE B (solo)

BRIDGE B (solo)

G|-------------------------------------------------------------------------|
D|-------------------------------------------------------------------------|
A|-------------------------------------------------------------------------|
D|0-0-10-0-0-12-0-0-3-0-0-5-0-0-5-3----------------------------------------|