Porcupine Tree - Last Chance To Evacuate Planet Earth Before It Is Recycled Chords & Tabs

 

Last Chance To Evacuate Planet Earth Before It Is Recycled Chords & Tabs

Porcupine Tree Chords & Tabs

Version: 1 Type: Tab

Last Chance To Evacuate Planet Earth Before It Is Recycled Tab

   
PORCUPINE TREE

"Last chance to evacuate planet earth before it is recycled."
(Lightbulb Sun Album)


Tab by Raphaël LEGER (Andrésy / FRANCE)
This Tab is not completed yet.
Any comment/suggestions/additions/corrections/insults : deliriumkariboo@wanadoo.fr
ICQ # : 39775146

My favourite PT song... here we go :

(Stardard tuning E A D G B E)

Okay these are the chords on the "If you fall asleep with me..." part...

-----2-----3-----3-----0---------------------------------|
-----3-----3-----3-----6---------------------------------|
-----2-----0-----0-----5---------------------------------|
-----0-----2-----0-----0---------------------------------|
-----0-----3-----2-----x---------------------------------|
-----x-----x-----3-----x---------------------------------|
[ Tab from: http://www.guitartabs.cc/tabs/p/porcupine_tree/last_chance_to_evacuate_planet_earth_before_it_is_recycled_tab.html ]
     D     C9    G     ?

And this is what i got of the final section...

-----x-x-x-x---x-x-x-x---x-x-x-x---x-x-x-x---------------|
-----x-x-x-x---x-x-x-x---x-x-x-x---x-x-x-x---------------|
-----7-7-7-7---7-7-7-7---7-7-7-7---7-7-7-7---------------|
-----7-7-7-7---7-7-7-7---7-7-7-7---7-7-7-7---------------|
-----5-5-5-5---5-5-5-5---x-x-x-x---x-x-x-x---------------|
-----x-x-x-x---x-x-x-x---6-6-6-6---6-6-6-6---------------|


-----x-x-x-x---x-x-x-x---x-x-x-x---x-x-x-x---------------|
-----x-x-x-x---x-x-x-x---x-x-x-x---x-x-x-x---------------|
-----7-7-7-7---7-7-7-7---7-7-7-7---7-7-7-7---------------|
-----7-7-7-7---7-7-7-7---7-7-7-7---7-7-7-7---------------|
-----x-x-x-x---x-x-x-x---x-x-x-x---x-x-x-x---------------|
-----7-7-7-7---7-7-7-7---6-6-6-6---6-6-6-6---------------|


That's all for now. See you !