Pop Iggy - Little Know It All Chords & Tabs

 

Little Know It All Chords & Tabs

Pop Iggy Chords & Tabs

Version: 1 Type: Tab 0 ratings
1 star 2 stars 3 stars 4 stars 5 stars
comments

Little Know It All Tab

Eb:-x-x-x----------------------------------------------------------------
Bb:-x-x-x---------------------------------------------------------------
Gb:-x-x-x--------------------7----7--7-------------------------------
Db:-x-x-x---4--4---2h4---2---7----7--7---7----7--7------------------
Ab:-x-x-x---4--4---2h4---2---5----5--5---7----7--7------------------
Eb:-x-x-x---2--2---0h2---0---------------5----5--5------------------

Bridge: 5 times			    then this
Eb:---------------------------------------------|------------------
Bb:---------------------------------------------|-----------------
Gb:-------------------7----7--7-----------------|-----2----4--
Db:--4--4---2h4---2---7----7--7---7----7--7-----|--2--2----4--
Ab:--4--4---2h4---2---5----5--5---7----7--7-----|--2--0----2---
Eb:--2--2---0h2---0---------------5----5--5----|---0---------------

Verse(second guitar): 3x times                              then this
Eb:-----------------------------------------|-----------------
Bb:-----------------------------------------|----------------
Gb:-------------------7----7--7-------------|--------2----4--
Db:--4--4---2h4---2---7----7--7---7----7--7-|--2-----2----4---
Ab:--4--4---2h4---2---5----5--5---7----7--7-|--2-----0----2---
Eb:--2--2---0h2---0---------------5----5--5-|--0---------------

Verse/bridge(first guitar): x 2                    		         then
Eb:---------------------------------------------------------------|---------------
Bb:---------------------------------------------------------------|---------------
Gb:--11—11--9/11----9--11--9------11—11---9/11----9---14----13----|---------2---4-
Db:--x---x---x/x----x--x---x------x---x----x/x----x----x-----x----|----2----2---4-
Ab:--9---9---7/9----7--9---7------9---9----7/9----7---12----11----|----2----0---2-
Eb:---------------------------------------------------------------|----0----------
[ Tab from: http://www.guitartabs.cc/tabs/p/pop_iggy/little_know_it_all_tab.html ]
Chorus:                                             1st & 3rd chorus ending             2nd ending
Eb:-------------------------------------------------|--------------------|----------------
Bb:------------------------------9-13b14b13-9-------|--------------------|---------------
Gb:----------7-7--7--7----------------9-9-----------|------2-------------|--6-------9----
Db:4--4-4----7-7--7--7---7--7--7--7---9-9-----------|--2---2---2---4-----|--6---7---9---6
Ab:4--4-4----5-5--5--5---7--7--7--7---7-7-----------|--2---0---2---4-----|--4---7---7---6
Eb:2--2-2----------------5--5--5--5-----------------|--0-------0---2-----|------5-------4

Solo #1:
Eb:----------------------------------------------------------------------------------
Bb:---------10---------------------------------------------------10------------9b10v-
Gb:-10b11------11r9-------10b11vb10p9-----9--------------10b11-------11r9-----10b11v-
Db:-------------------11--------------11------11-11p9----------------------11--------
Ab:---------------------------------------------------12-----------------------------
Eb:----------------------------------------------------------------------------------
Solo #2		              hold bend on 11’s
Eb:----------------------------------------------------------------------------------
Bb:----------------------------------------------------------------------------------
Gb:-10br11---10b11b9---------------------------------------------10br11---10b11r9----
Db:-------------------------12p11—10b11-11-11-11r9----------11--------------------11-
Ab:--------------------------------------------------12p9----------------------------
Eb:----------------------------------------------------------------------------------
			                    (11 on E is at ¼ step bend when picked)
Eb:------------------------------------------------------------------11-------11-----------11
Bb:-9b10-10r---8b9-9r-12p9-------10br11---10br11---10b11p9-----12b13----12b13--------12b13---
Gb:------------------------9h11-----------------------------11-----------------------
Db:----------------------------------------------------------------------------------
Ab:----------------------------------------------------------------------------------
Eb:----------------------------------------------------------------------------------

Eb:--------------------------------------14-14-14~~~--9~~~--7~~~--5~~~---------------
Bb:-12-10--------------------------------19-19-19~~~-14~~~-12~~~-10~~~---------------
Gb:--------11v-9v-10v-12v-14p12------------------------------------------------------
Db:-------------------------------14-------------------------------------------------
Ab:-----------------------------------------------------------------------------------
Eb:-----------------------------------------------------------------------------------

Order:
Intro
Bridge
Bridge w/ first guitar
Verse 
Chorus
Solo #1
Verse
Chorus
Solo #2
Chorus







Comments