Polyphonic Spree - Light And Day Chords & Tabs

 

Light And Day Chords & Tabs

Polyphonic Spree Chords & Tabs

Version: 1 Type: Tab 0 ratings
1 star 2 stars 3 stars 4 stars 5 stars
comments

Light And Day Tab

   
I can't believe you 'tards have never heard of the SPREE!!!

Official site: www.thepolyphonicspree.com
Record company: www.679recordings.com

==========================================================================

The Polyphonic Spree
Light & Day Riff
Tabbed By Steve: steevo_baby@hotmail.com (AKA Geldof_the_Grey)

There's only one riff in this song, just play it over and over.

NB: When playing, use a clean amp channel and turn up the treble. Try to 
pick the strings from right up against the bridge. The letters above the
tab are the notes you are playing to help if you want to work out the
keyboard and brass parts.

==========================================================================
[ Tab from: http://www.guitartabs.cc/tabs/p/polyphonic_spree/light_and_day_tab.html ]
Capo 1st Fret
    D#              D                   C     D    D#  A#                
e| --------------------------------- | --------------------------------- |
B|:--------------------------------- | --------------------------------- |
G| --------------------------------- | --------------------------------- |
D| -----0-----0---------0-----0----- | -----0-----0---------0-----0----- |
A|:---0-----0-----0---0-----0-----0- | ---0-----0-----0---0-----0-----0- |
E| 10----10----10---9-----9-----9--- | \7----/9----10---5-----5-----5--- |
    1 . & . 2 . & . 3 . & . 4 . & .  

    G#              G                   G#                  A#    C     D     
e| --------------------------------- | --------------------------------- |
B| --------------------------------- | ---------------------------------:|
G| --------------------------------- | --------------------------------- |
D| -----0-----0---------0-----0----- | -----0-----0---------0-----0----- |
A| ---0-----0-----0---0-----0-----0- | ---0-----0-----0---0-----0-----0-:|
E| \3-----3-----3---2-----2-----2--- | -3-----3-----3--/5----/7---/-9--- |

That's the riff which repeats over and over throughout the track. Chords 
from Soldier Girl coming up on this site for Spree fans!!
Comments