Poltz Steve - Ten Chances Chords & Tabs

 

Ten Chances Chords & Tabs

Poltz Steve Chords & Tabs

Version: 1 Type: Chords 0 ratings
1 star 2 stars 3 stars 4 stars 5 stars
comments

Ten Chances Chords

   
#----------------------------------PLEASE NOTE--------------------------------#
#This file is the author's own work and represents their interpretation of the#
#song. You may only use this file for private study, scholarship, or research.#
#-----------------------------------------------------------------------------#
#-- File created with Instab - http://www.pconline.com/~smcarey/instab.html --#
#-----------------------------------------------------------------------------#

Author/Artist: Steve Poltz
Title: Ten Chances
Album: Chinese Vacation
Transcribed by: Joe Dubberly
Email: joedubberly@hotmail.com

Feel the love!

Capo goes on the 5TH Fret!
INTRO:
------------------------------------------------------3-----------------------
--3----------------------------------------3----------3-----------------------
--4p-2p2p------0---------------------------0-0--------0-0---------------------
----------0/2/4-4p-2p2p-----0-----------0-----0-----0----0--------------------
-----------------------0/2/3--3/2/0-2p----------------------------------------
---------------------------------------3--------2/3---------------------------
                                                                              
Basic Strumming Pattern for Verses and Chorus goes like this kinda.

-------------------3----------------0---0/2h----------------------------------
-------0------------3-0----------3---3-------3-0------------------------------
---0----0-0----0-----0------------2---2-------2-------------------------------
----2----2------0--------------0-------0--------------------------------------
------------------------------------------------------------------------------
-0---0-------3----------------------------------------------------------------
   Em          G                D                                              

Em              G      Em               G
I Only had One Minute Left on my calling card
Em                         G             D
I was half way around the world and it was raining really hard
Em                G             Em             G
I only had a couple of aspirin and a half a can of beer
Em                          G              D
So I swallowed it down for courage but it was still pretty hard to hear
Em               G           Em             G
Cause I only had Three words That I wanted to tell you
Em              G               D
But it would be easier if you were here and I could smell you
[ Tab from: http://www.guitartabs.cc/tabs/p/poltz_steve/ten_chances_crd.html ]
Chorus:
C           D
Words are fallin' out I know
G  G/F#            Em
They drift they pass they melt like snow
C            D                G  G/F#            Em
And I know I may be a flake, I scrape my knews and make mistakes
C               D              G   G/F#         Em
And I may lose but mostly win, Sometimes I get soaked in sin
C             D           Em
But I fall right back into your arms again

Repeat Intro:
Em                G              Em                 G
So I ordered four Pints of Guiness and I set them on a trunk
Em              G            D
I had a long converstaion with a hopeless drunk
Em              G           Em          G
And I only had five tickets and six new friends
Em             G                 D
One of them Had a hissy fit and drove off in her Mercedes Benz

Repeat Chorus:

e|----------------|-----------------|--------------|----------3---|
B|-3/1/0-1/0------|-----------------|--------------|----------3---|
G|-4/2/0-2/0------|-0---------------|--------------|----0---------|
D|-0---------0/2/4|---4/2/0-2/0-----|--0-----------|------0-------|
A|----------------|-------------0/2/|3---3/2/0-2/0-|--------------|
E|----------------|-----------------|--------------|2/3-----3-----|

Repeat Intro:
Em                G         Em                G
So we played seven card stud, and I had a royal flush
Em              G            D
And I took out your picture and I started to blush
Em             G          Em              G
Cause I only had eight lives, most cats got nine
Em                    G              D
So I skipped out on bungee jumping, Just this time (just this time)
Em                G          Em          G
Because I only had ten chances, to say I love you


Repeat Chorus:

Outro:

   C        D        G                  C        D        G
e|-----0-3|-2-3-5-2|-3---0--|---------|-----0-3|-2-3-5-2|-3---0--|--------|
B|-1-3----|-3------|-3-3---0|-2---0---|-1-3----|-3------|-3-3---0|-2---0--|
G|-0------|-2------|-0------|---0---0-|-0------|-2------|-0------|---0--0-|
D|-2------|-0------|-0------|---------|-2------|-0------|-0------|--------|
A|-3------|--------|-2------|---------|-3------|--------|-2------|--------|
E|--------|--------|-3------|---------|--------|--------|-3------|--------|
  C        D                            G
e|--------|-------0/2/0/2/0/2/0/2/0/2/0/-3|
B|-1-3-1-0|-3----------------------------3|
G|-0------|-2-2--------------------------0|
D|-2------|-0---0------------------------0|
A|-3------|------------------------------2|
E|--------|------------------------------3|
Comments