Police - Wrapped Around Your Finger Chords & Tabs

 

Wrapped Around Your Finger Chords & Tabs

Police Chords & Tabs

Version: 1 Type: Bass Tab 0 ratings
1 star 2 stars 3 stars 4 stars 5 stars
comments

Wrapped Around Your Finger Bass Tab

    The Police - "Wrapped Around Your Finger" - Bass Tab

Common time(4/4)
Drop D tuning(DADG)

Main Riff:

G|------------|------------|
D|*-----------|-----------*|(their are lots
A|*-0---0-0-0-|-0---0-7-r-*| of little riff
D|------------|------------| variations) 
    1 2 & 3 4   1 2 & 3 4  

Chorus:

G|--------------|-------------|-------------|--------------|
D|*-------------|-------------|-------------|-------------*|(x2)
A|*-------------|-------------|-------------|-------------*|(x3 3rd
D|--5---5-5---5-|-5---5-5---5-|-3---3-3---3-|-3---3-3---3--|  time)
    1 2 & 3 4 &   1 2 & 3 4 &   1 2 & 3 4 &   1 2 & 3 4 &

G|-------------|-------------|
D|-------------|-------------|
A|-------------|-5---5-5---5-|
D|-2---2-2---2-|-------------|
   1 2 & 3 4 &   1 2 & 3 4 &

Verse 3:
 
G|-------------|-------------|-------------|-------------|
D|-------------|-------------|-------------|-------------|
A|-0---0-0---0-|-------------|-------------|-------------|
D|-------------|-2---2-2---2-|-3---3-3---3-|-5---5-5---5-|
   1 2 & 3 4 &   1 2 & 3 4 &   1 2 & 3 4 &   1 2 & 3 4 &
[ Tab from: http://www.guitartabs.cc/tabs/p/police/wrapped_around_your_finger_btab.html ]
G|-------------|-------------|-------------|-------------|
D|-------------|-------------|-------------|-------------|
A|-------------|-------------|-------------|-------------|
D|-0---0-0---0-|-2---2-2---2-|-3---3-3---3-|-5---5-5---5-|
   1 2 & 3 4 &   1 2 & 3 4 &   1 2 & 3 4 &   1 2 & 3 4 &

G|-------------|-------------|-------------|-------------|
D|-------------|-------------|-------------|-------------|
A|-0---0-0---0-|-------------|-------------|-------------|
D|-------------|-2---2-2---2-|-3---3-3---3-|-5---5-5---5-|
   1 2 & 3 4 &   1 2 & 3 4 &   1 2 & 3 4 &   1 2 & 3 4 &

G|-------------|-------------|-------------|-------------|
D|-------------|-------------|-------------|-------------|
A|-------------|-------------|-------------|-------------|
D|-0---0-0---0-|-2---2-2---2-|-3---3-3---3-|-3---3-3---3-|
   1 2 & 3 4 &   1 2 & 3 4 &   1 2 & 3 4 &   1 2 & 3 4 &

Song Structure:
INTRO: main riff(x8)
VERSE 1: main riff(x8)
Chorus(x1)
main riff(x4)
VERSE 2: main riff(x4)
Chorus(x1)
main riff(x4)
Verse 3(x1)
Chorus(x1)
OUTRO: main riff(fade-out)

By: Johari Taylor
E-mail: viking@powerup.com.au






Comments