Police - Walking On The Moon Chords & Tabs

 

Walking On The Moon Chords & Tabs

Police Chords & Tabs

Version: 1 Type: Bass Tab 0 ratings
1 star 2 stars 3 stars 4 stars 5 stars
comments

Walking On The Moon Bass Tab

From: Oded Joel   (joelfam@actcom.co.il)
Date: 2nd Dec 2000


WALKING ON THE MOON	(as recorded by The Police)

Original music by Sting

h = hammer on for next note
p = pull off for next note
s = slide up to next note
(n) = optional fingered note

The tab submmited by mike@honet7.att.com was right except for the chorus

A simple song with a lot of space. One of Stings best
I hope you understand the timr in the end
[ Tab from: http://www.guitartabs.cc/tabs/p/police/walking_on_the_moon_btab.html ]
Verse
|---------------------------------------------------------------------------
|------------------s3---2----------------------s3---2-----------------------
|---3---3---5---------------3-------3---3---5-----------3-------------------
|---------------------------------------------------------------------------
	Giant steps are what you take...

Riff into chorus     
|-------------------
|-------5---5---5---
|---5---------------
|-------------------

Chorus
|---------------------------------------------------------------------------
|---------------------------------------------------------------------------
|---1---1---1---3-------------------3---3---3----------------0--------------
|------------------1--1--1--1---3---------------3--3--3--3------------------
	Some may say...

Comments