Police - Voices Inside My Head Chords & Tabs

 

Voices Inside My Head Chords & Tabs

Police Chords & Tabs

Version: 1 Type: Bass Tab 0 ratings
1 star 2 stars 3 stars 4 stars 5 stars
comments

Voices Inside My Head Bass Tab

   
Song: Voices Inside My Head
Band: The Police
Album: Zenyatta Mondatta
Bassist: Sting
Comments: As with most Police is bass lines, this a relatively
simple but has a really nice feel to it. Make sure ascent
the B's on the beggining phrase.I'm just going to post all
the little riffs Sting does through out the song and let
you piece them together. It's not very hard.

[ Tab from: http://www.guitartabs.cc/tabs/p/police/voices_inside_my_head_btab.html ]
Riff A
G*----------------*
D*----------------*
A*2202-----------0*
E*----------------*


Riff B
G*----------------*
D*----------------*
A*2202-----40----0*
E*-----------20---*


Riff C
G*----------------*
D*----------------*
A*2202---2440-----*
E*-----------20-2-*


Riff D
G*----------------*
D*----------2-4-2-*
A*2202---24-------*
E*----------------*


Riff E
G*----------------*
D*----------------*
A*2202---2440-----*
E*-----------20-2-*

Comments