Police - Secret Journey Chords & Tabs

 

Secret Journey Chords & Tabs

Police Chords & Tabs

Version: 1 Type: Tab 0 ratings
1 star 2 stars 3 stars 4 stars 5 stars
comments

Secret Journey Tab

   
#----------------------------------PLEASE NOTE---------------------------------#
#This file is the author's own work and represents their interpretation of the #
#song. You may only use this file for private study, scholarship, or research. #
#------------------------------------------------------------------------------##
Date: Thu, 12 Oct 95 18:14:41 -0700
From: Brian McDonald 

Secret Journey
By the Police
Off the album GHOST IN THE MACHINE

Words and Music by Sting
TAB translation by Brian McDonald


Here's a quick TAB for the beginning of the song.. I'll figure the
rest out later..

     Am       Am/G=
[ Tab from: http://www.guitartabs.cc/tabs/p/police/secret_journey_tab.html ]
     Palm mute-----
e--------------------------|-------------------------|-----------------\
B-----------0--------------|--1----0-----------------|-----0-----------|
G----------------0--2----0-| ------------0--2-----0--|---------0--2---0|
D-------2--------------2---|-----2----2--------2-----|---2----------2--|
A----0---------------------|-------------------------|-0---------------|
E--------------------------|-------------------------|-----------------/

                            =


e -------------------------|\
B---1----0----------------:||
G-------------0--2---------||
D------2----2--------------||
A------------------3--2---:||
E--------------------------|/


D        E                  D      E

   You will     see__ light in | __ the    dark  - ness

e--5----5----5---4--------4--4-|-5---5--5---4--------------4--4--------\
B--3----3----3---5--------5--5-|-3---3--3---5--------------5--5--------|
G--2----2----2---4--------4--4-|-2---2--2---4--------------4--4--------|
D--0----0----0---6--------6--6-|-0---0--0---6--------------6--6--------|
A------------------------------|---------------------------------------|
E------------------------------|---------------------------------------/


   
Comments