Police - Roxanne Chords & Tabs

 

Roxanne Chords & Tabs

Police Chords & Tabs

Version: 1 Type: Tab 1 rating
1 star 2 stars 3 stars 4 stars 5 stars
comments

Roxanne Tab

#----------------------------------PLEASE NOTE---------------------------------#
#This file is the author's own work and represents their interpretation of the #
#song. You may only use this file for private study, scholarship, or research. #
#------------------------------------------------------------------------------##
From: mwelie@cs.vu.nl

Transcription to 'Roxanne' by 'The Police'
 by Martijn van Welie.

Riff 1:

  1 2 3 4 |                                         1 & 2 & 3 & 4 & |
  
E-3-3-3-3-|-1-1-1-1-|-6-6-6-6-|-5-5-5-5-|-3-3-3-3-|-1---1---1---1-3-|
B-3-3-3-3-|-3-3-3-3-|-8-8-8-8-|-6-6-6-6-|-4-4-4-4-|-1---1---1---1-3-|
G-3-3-3-3-|-2-2-2-2-|-7-7-7-7-|-5-5-5-5-|-3-3-3-3-|-3---3---3---3-5-|
D---------|---------|---------|-7-7-7-7-|-5-5-5-5-|---------------5-|
A---------|---------|---------|---------|---------|-----------------|
E---------|---------|---------|---------|---------|-----------------|

 followed with 2 bars rest. Play 3 times.
 Fourth time play:

E-3-3-3-3-|-1-1-1-1-|-3-3-3-3-|-3-3-3-3-|-3-3-3-3-|-1---1---1---1-3-|
B-4-4-4-4-|-1-1-1-1-|-3-3-3-3-|-3-3-3-3-|-4-4-4-4-|-1---1---1---1-3-|
G-3-3-3-3-|-3-3-3-3-|-5-5-5-5-|-5-5-5-5-|-3-3-3-3-|-3---3---3---3-5-|
D-5-5-5-5-|-3-3-3-3-|-5-5-5-5-|-5-5-5-5-|-5-5-5-5-|-3---3---3---3-5-|
A---------|-3-3-3-3-|-5-5-5-5-|-5-5-5-5-|---------|-3---3---3---3-5-|
E---------|---------|---------|---------|---------|-----------------|

E-----------------|-----------------|
B-----------------|-----------------|
G-----------------|-----------------|
D-----------------|-----------5---3-|
A-5-5-5-5-5-5-5-5-|-5-5-5-5-5-3---1-|
E-3-3-3-3-3-3-3-5-|-3-3-3-3-3-------|


Riff 2:
E-----------------|-----------------|-----------------|-----------------|
B-----------------|-----------------|-----------------|-----------------|
G-----------------|-----------3---5-|-5-5-5-5-5-5-5-5-|-5-5-5-5-5-------|
D-3-3-3-3-3-3-3-3-|-3-3-3-3-3-1---3-|-3-3-3-3-3-3-3-3-|-3-3-3-3-3-------|
A-1-1-1-1-1-1-1-1-|-1-1-1-1-1-------|-----------------|-----------3---5-|
E-----------------|-----------------|-----------------|-----------1---3-|

E-----------------|-----------------|
B-----------------|-----------------|
G-----------------|-----------------| repeat several times
D-----------------|-----------5---3-|
A-5-5-5-5-5-5-5-5-|-5-5-5-5-5-3---1-|
E-3-3-3-3-3-3-3-5-|-3-3-3-3-3-------|


****************************************************************************************************

****************************************************************************************************



From s1170796@giaec.cc.monash.edu.au (DANGERMAN (P. Grant))
Subject: ROXANNE - THE POLICE
Date: Wed, 7 Apr 1993 05:40:41 GMT

    Well it has started.  After posting my article yesterday, I have been
    flooded with requests for Police songs in Tab.  So today I have sat down,
    in between lectures and typed in Roxanne for your playing pleasure.

    Since I am doing a number of songs, I would like a favour in return.  I
    would like a list of good quality bootlegs of Police concerts and where I
    can get a hold of them expecially in Australia.  That's the bargin, info
    for songs.

    Stay tuned for more songs.



                    ROXANNE  -  THE POLICE
                    ======================
                    WORDS & MUSIC - STING


                    Transcribed - Phil Grant


   |-3--3--3--3-|-3--3--3--3-|-3--3--3--3-|-1--1--1--1-|-3--3--3--3-|
   |-3--3--3--3-|-3--3--3--3-|-3--3--3--3-|-3--3--3--3-|-3--3--3--3-|
   |-3--3--3--3-|-3--3--3--3-|-3--3--3--3-|-2--2--2--2-|-3--3--3--3-|
   |-5--5--5--5-|-5--5--5--5-|-5--5--5--5-|-3--3--3--3-|-1--1--1--1-|
   |------------|------------|------------|------------|------------|
   |------------|------------|------------|------------|------------|

                                                                Rox-
   |-5--5--5--5-|-3--3--3--3-|-1--1-1-1-3-|------------|------------|
   |-6--6--6--6-|-4--4--4--4-|-1--1-1-1-3-|-----HOLD---|------------|
   |-7--7--7--7-|-5--5--5--5-|-3--3-3-3-5-|-----LAST---|------------|
   |-7--7--7--7-|-5--5--5--5-|-3--3-3-3-3-|-----NOTE---|------------|
   |------------|------------|----------5-|------------|------------|
   |------------|------------|----------3-|------------|------------|

       
    |--3----3----3----3--|--1----1----1----1--|--3----3----3----3--|
    |--3----3----3----3--|--1----1----1----1--|--3----3----3----3--|
    |--3----3----3----3--|--1----1----1----1--|--3----3----3----3--|
    |--5----5----5----5--|--3----3----3----3--|--1----1----1----1--|
    |--------------------|--------------------|--------------------|
    |--------------------|--------------------|--------------------|
[ Tab from: http://www.guitartabs.cc/tabs/p/police/roxanne_tab.html ]
                        
      |-5--5--5--5-|--3----3----3----3--|--1----1----1----1---3--|
      |-6--6--6--6-|--4----4----4----4--|--1----1----1----1---3--|
      |-7--7--7--7-|--5----5----5----5--|--3----3----3----3---5--|
      |-7--7--7--7-|--5----5----5----5--|--3----3----3----3---3--|
      |------------|--------------------|---------------------5--|
      |------------|--------------------|---------------------3--|

             
             |--------------------|--------------------|
             |---------HOLD-------|---------HOLD-------|
             |---------LAST-------|---------LAST-------|
             |---------NOTE-------|---------NOTE-------|
             |--------------------|--------------------|
             |--------------------|--------------------|

       
    |--3----3----3----3--|--1----1----1----1--|--3----3----3----3--|
    |--3----3----3----3--|--1----1----1----1--|--3----3----3----3--|
    |--3----3----3----3--|--1----1----1----1--|--3----3----3----3--|
    |--5----5----5----5--|--3----3----3----3--|--1----1----1----1--|
    |--------------------|--------------------|--------------------|
    |--------------------|--------------------|--------------------|

                        
      |-5--5--5--5-|--3----3----3----3--|--1----1----1----1---3--|
      |-6--6--6--6-|--4----4----4----4--|--1----1----1----1---3--|
      |-7--7--7--7-|--5----5----5----5--|--3----3----3----3---5--|
      |-7--7--7--7-|--5----5----5----5--|--3----3----3----3---3--|
      |------------|--------------------|---------------------5--|
      |------------|--------------------|---------------------3--|

                 
             |--------------------|--------------------|
             |---------HOLD-------|---------HOLD-------|
             |---------LAST-------|---------LAST-------|
             |---------NOTE-------|---------NOTE-------|
             |--------------------|--------------------|
             |--------------------|--------------------|

       
    |--3----3----3----3--|--1----1----1----1--|--3----3----3----3--|
    |--4----4----4----4--|--1----1----1----1--|--3----3----3----3--|
    |--5----5----5----5--|--3----3----3----3--|--5----5----5----5--|
    |--5----5----5----5--|--3----3----3----3--|--5----5----5----5--|
    |--------------------|--------------------|--------------------|
    |--------------------|--------------------|--------------------|

 
    |-3--3--3--3-|-3--3--3--3-|--1---1--1--1--3--|---------------|
    |-3--3--3--3-|-4--4--4--4-|--1---1--1--1--3--|---------------|
    |-5--5--5--5-|-5--5--5--5-|--3---3--3--3--5--|---------------|
    |-5--5--5--5-|-5--5--5--5-|--3---3--3--3--3--|---------------|
    |------------|------------|---------------5--|----5--5--5--5-|
    |------------|------------|---------------3--|----3--3--3--3-|


          
                         (Put on your red light)
     |--------------------|----------------------|--------------------|
     |--------------------|----------------------|--------------------|
     |------------5---3---|--3--3--3--3--3--3--3-|--3-3-3-3----8--10--|
     |------------5---3---|--3--3--3--3--3--3--3-|--3-3-3-3----8--10--|
     |-5-5-5-5----3---1---|--1--1--1--1--1--1--1-|--1-1-1-1----6---8--|
     |-3-3-3-3------------|----------------------|--------------------|

                                          
     (Put on your red light)                      (Put on the red light)
     |----------------------|--------------------|----------------------|
     |----------------------|--------------------|----------------------|
     |-10-10-10-10-10-10-10-|-10-10-10-10--------|----------------------|
     |-10-10-10-10-10-10-10-|-10-10-10-10---3--5-|--5--5--5--5--5--5--5-|
     |--8--8--8--8--8--8--8-|--8--8--8--8---3--5-|--5--5--5--5--5--5--5-|
     |----------------------|---------------1--3-|--3--3--3--3--3--3--3-|

       
                          (Put on the red light)
     |--------------------|----------------------|--------------------|
     |--------------------|----------------------|--------------------|
     |------------5---3---|--3--3--3--3--3--3--3-|--3-3-3-3----8--10--|
     |------------5---3---|--3--3--3--3--3--3--3-|--3-3-3-3----8--10--|
     |-5-5-5-5----3---1---|--1--1--1--1--1--1--1-|--1-1-1-1----6---8--|
     |-3-3-3-3------------|----------------------|--------------------|

                                             Oh____
     (Put on your red light)
     |----------------------|----------------------3-|------------------|
     |----------------------|----------------------3-|------------------|
     |-10-10-10-10-10-10-10-|-10-10-10-10-10-10-10-5-|-------HOLD-------|
     |-10-10-10-10-10-10-10-|-10-10-10-10-10-10-10-3-|-------LAST-------|
     |--8--8--8--8--8--8--8-|--8--8--8--8--8--8--8-5-|-------NOTE-------|
     |----------------------|----------------------3-|------------------|
                                       *last time through, repeat until fade


-----
Comments