Police - Every Little Thing She Does Is Magic Chords & Tabs

 

Every Little Thing She Does Is Magic Chords & Tabs

Police Chords & Tabs

Version: 1 Type: Tab 0 ratings
1 star 2 stars 3 stars 4 stars 5 stars
comments

Every Little Thing She Does Is Magic Tab

   
#----------------------------------PLEASE NOTE---------------------------------#
#This file is the author's own work and represents their interpretation of the #
#song. You may only use this file for private study, scholarship, or research. #
#------------------------------------------------------------------------------#

Tabber: greatness7410@yahoo.com

My first tab, so email me any suggestions and stuff. 

Here is the Intro.
pretty much any arpeggio on the Dsus2 will work here

|-------0-(0)----------------------0--(0)-------------|
|---------------3------------------------------3------|
|-x-0-2-------2----2--(2)--0---2-----------2-------2--|
|-----------------------------------------------------|
|-----------------------------------------------------|
|-----------------------------------------------------|
[ Tab from: http://www.guitartabs.cc/tabs/p/police/every_little_thing_she_does_is_magic_tab.html ]
|-------0-(0)----------------------5---3---2---0------|
|---------------3----------------------------------x--|
|-0-0-2-------2----2--(2)--0---2----------------------|
|-----------------------------------------------------|
|-----------------------------------------------------|
|-----------------------------------------------------|
For the verse, play this if you want

  Dsus2/G    Dsus2/A    Dsus2/B    Dsus2/C#
|-0--------|-0--------|-0--------|-0----|
|-3--------|-3--------|-3--------|-3----|
|-0--------|-2--------|-2--------|-2----|
|----------|-0--------|-0--------|-0----|
|----------|-0--------|-2--------|-4----|
|----------|----------|----------|------|
Finish on A D 


Play this after the verse
|-2-2--3--5---|-2-2--3--5---|-2-2--3--5------|
|-3-3--3--5---|-3-3--3--5---|-3-3--3--5------|
|-2-2--0--0---|-2-2--0--0---|-2-2--0--0------|
|-0-0--0--0---|-0-0--0--0---|-0-0--0--0------|
|-------------|-------------|----------------|

Have fun!
|-------------|-------------|----------------|
Do A, then D on the verse.
Comments