Police - Every Breath You Take Chords & Tabs

 

Every Breath You Take Chords & Tabs

Police Chords & Tabs

Version: 7 Type: Tab 1 rating
1 star 2 stars 3 stars 4 stars 5 stars
comments

Every Breath You Take Tab

   
#----------------------------------PLEASE NOTE---------------------------------#
#This file is the author's own work and represents their interpretation of the #
#song. You may only use this file for private study, scholarship, or research. #
#------------------------------------------------------------------------------

Song: Every Breath You Take
Artist: Police/Sting
Tab by: Jess Reed
SONG NOTES: Capo on Second 
            All notation relative to capo 
            Standard tuning

This is a bloody excellent song, and sounds good on both electric and acoustic. 
This is the way i play it on an acoustic, because in my opinion it sounds heaps better t
han the original on an acoustic. The capo is a necessity to get around those curly chords, 
and it relly rings outwith it. Please note this not the original version of the song. 
Forgive any mistakes, but i'm 99% sure these are the correct notes. Any comments, corrections
or praise are welcome at fender173@hotmail.com. Play hard and loud, and have fun.

   
INTRO/VERSE
  Gadd9 (?)
E-------------------|-------------------|
B---------0---------|---------0---------|
G-----1-----1---1---|-----1-----1---1---|
D---0---0-----0---0-|---0---0-----0---0-|
A-------------------|-------------------|
e-3-----------------|-3-----------------|

  Em7*
E-------------------|-------------------|
B-------------------|-------------------|
G--------0----------|--------0----------|
D-----4----4—-4-----|------4----4--4----|
A---2---2----2--2---|----2---2----2—2---|
e-0-----------------|-0-----------------|

  C              D 
E-----------------|-----------------|
B-----3-1---------|-----4-2---------|
G---------0---0---|---2-----2---2---|
D---2-------3---3-|-0---------0---0-|
A-3---------------|-----------------|
e-----------------|-----------------|
 VERSE 1
Ev     
         CHORUS 
          C                  Bb             
        E----------------------------------------|
        B--------3-1-----------------------------|
        G------------0---0----------5--3---------|
        D------2-------3---3------3-------3---3--|
        A----3-----------------1-----------1---1-|
        E----------------------------------------|
O 

  Gadd9 (?)
E-------------------|-------------------|
B---------0---------|---------0---------|
G-----1-----1---1---|-----1-----1---1---|
D---0---0-----0---0-|---0---0-----0---0-|
A-------------------|-------------------|
e-3-----------------|-3-----------------|
  

      Aadd9
E----------------------------|-----------------------------
B----------------------------|-----------------------------
G----------------6-----------|------------6----------------
D-----------9--------9-----9-|------9---------9----9-------
A-------7-----7--------7-----|---7-----7---------7---------
E-----5----------------------|-5---------------------------
    

  D 
E-----------------|-----------------|
B-----4-2---------|-----4-2---------|
G---2-----2---2---|---2-----2---2---|
D-0---------0---0-|-0---------0---0-|
A-----------------|-----------------|
e-----------------|-----------------|


VERSE 2:

BRIDGE:

  Eb     F
E--8--1----1-|--
B--8--1----1-|--
G--8--2-OR-2-|--
D--8--3----3-|--
A--6--3------|--
E-----1------|--


                                        Gadd9 (?)
                     E-------------------|-------------------|
                     B---------0---------|---------0---------|
                     G-----1-----1---1---|-----1-----1---1---|
                     D---0---0-----0---0-|---0---0-----0---0-|
                     A-------------------|-------------------|
                     e-3-----------------|-3-----------------|
 


REPEAT VERSE PATTERN x2
[ Tab from: http://www.guitartabs.cc/tabs/p/police/every_breath_you_take_tab_ver_7.html ]
CHORUS
    C                  Bb             
E----------------------------------------|
B--------3-1-----------------------------|
G------------0---0----------5--3---------|
D------2-------3---3------3-------3---3--|
A----3-----------------1-----------1---1-|
E----------------------------------------|
  

  Gadd9 (?)
E-------------------|-------------------|
B---------0---------|---------0---------|
G-----1-----1---1---|-----1-----1---1---|
D---0---0-----0---0-|---0---0-----0---0-|
A-------------------|-------------------|
e-3-----------------|-3-----------------|


      


Aadd9
E----------------------------|-----------------------------
B----------------------------|-----------------------------
G----------------6-----------|------------6----------------
D-----------9--------9-----9-|------9---------9----9-------
A-------7-----7--------7-----|---7-----7---------7---------
E-----5----------------------|-5---------------------------
   

  D 
E-----------------|-----------------|
B-----4-2---------|-----4-2---------|
G---2-----2---2---|---2-----2---2---|
D-0---------0---0-|-0---------0---0-|
A-----------------|-----------------|
e-----------------|-----------------|
   

    C                  Bb             
E--------------------|--------------------|
B--------3-1---------|--------------------|
G------------0---0---|-------5--3---------|
D------2-------3---3-|-----3-------3---3--|
A----3---------------|--1-----------1---1-|
E--------------------|--------------------|
 

  Gadd9 (?)
E-------------------|-------------------|
B---------0---------|---------0---------|
G-----1-----1---1---|-----1-----1---1---|
D---0---0-----0---0-|---0---0-----0---0-|
A-------------------|-------------------|
e-3-----------------|-3-----------------|
  

      Aadd9
E----------------------------|-----------------------|
B----------------------------|-----------------------|
G----------------6-----------|------------6----------|
D-----------9--------9-----9-|------9---------9----9-|
A-------7-----7--------7-----|---7-----7---------7---|
E-----5----------------------|-5---------------------|
    

  D 
E-----------------|-----------------|
B-----4-2---------|-----4-2---------|
G---2-----2---2---|---2-----2---2---|
D-0---------0---0-|-0---------0---0-|
A-----------------|-----------------|
e-----------------|-----------------|
   

  Em7*
E-------------------|---------------------|
B-------------------|---------------------|
G--------0----------|--------0------------|
D-----4----4—-4-----|------4----4---4-----|
A---2---2----2--2---|----2---2----2—--2---|
e-0-----------------|-0-------------------|
              
  


C              D 
  E-----------------|-----------------|
  B-----3-1---------|-----4-2---------|
  G---------0---0---|---2-----2---2---|
  D---2-------3---3-|-0---------0---0-|
  A-3---------------|-----------------|
  e-----------------|-----------------|


  Em7*
E-------------------|---------------------|
B-------------------|---------------------|
G--------0----------|--------0------------|
D-----4----4—-4-----|------4----4---4-----|
A---2---2----2--2---|----2---2----2—--2---|
e-0-----------------|-0-------------------|
  you

  D                 Gadd9 (?)
E-----------------|-------------------|-------------------|
B-----4-2---------|---------0---------|---------0---------|
G---2-----2---2---|-----1-----1---1---|-----1-----1---1---|
D-0---------0---0-|---0---0-----0---0-|---0---0-----0---0-|
A-----------------|-------------------|-------------------|
e-----------------|-3-----------------|-3-----------------|



REPEAT VERSE PICKING PATTERNS AND CHORDS IN THIS ORDER FOR THE OUTRO
--------------------------------------------------------------------



HAVE FUN,PLAY HARD
JESS
fender173@hotmail.com
Comments